Marilyn Manson - A Place In The Dirt Chords & Tabs

 

A Place In The Dirt Chords & Tabs

Marilyn Manson Chords & Tabs

Version: 1 Type: Bass Tab 0 ratings
1 star 2 stars 3 stars 4 stars 5 stars
comments

A Place In The Dirt Bass Tab

A Place in the Dirt - Marilyn Manson

By: Jon Craven (i_apathy@hotmail.com)
For questions, comments, feedback, an outline of the timing, write the above
address.

Note:
  -Played with a pick.

(4/4)(61 bpm)
Standard tuning

|-R-| - rest for one measure

Verse (pre-chorus): (0:15)(synth bass; palm muted)
|----------------|----------------|----------------|----------------|
|----------------|----------------|----------------|----------------|
|2-2-2-2-2-2-2-2-|----------------|2-2-2-2-2-2-2-2-|----------------|
|----------------|2-2-2-2-2-2-2-2-|----------------|2-2-2-2-2-2-2-2-|

|----------------|----------------|----------------|---|
|----------------|----------------|----------------|---|
|2-2-2-2-2-2-2-2-|0-0-0-0-0-0-0-0-|----------------|---|
|----------------|----------------|3-3-3-3-3-3-3-3-|-R-|
[ Tab from: http://www.guitartabs.cc/tabs/m/marilyn_manson/a_place_in_the_dirt_btab.html ]
Pre-chorus: (0:47)(synth bass; palm muted)
|----------------|----------------|----------------|----------------|
|----------------|----------------|----------------|----------------|
|2-2-2-2-2-2-2-2-|----------------|2-2-2-2-2-2-2-2-|----------------|
|----------------|2-2-2-2-2-2-2-2-|----------------|2-2-2-2-2-2-2-2-|

|----------------|----------------|----------------|----------------|
|----------------|----------------|----------------|----------------|
|2-2-2-2-2-2-2-2-|0-0-0-0-0-0-0-0-|----------------|----------------|
|----------------|----------------|3-3-3-3-3-3-3-3-|2-2-2-2-2-2-2-2-|

Chorus: (1:18)
|----------------|----------------|----------------|----------------|
|----------------|----------------|----------------|----------------|
|----------------|----------------|----------------|----------------|
|3-3-3-3-3-3-3-3-|6-6-6-6-6-6-6-6-|3-3-3-3-3-3-3-3-|6-6-6-6-6-6-6-6-|

|----------------|----------------|----------------|----------------|
|----------------|----------------|----------------|----------------|
|----------------|----------------|----------------|----------------|
|3-3-3-3-3-3-3-3-|6-6-6-6-6-6-6-6-|3-3-3-3-3-3-3-3-|2-2-2-2-2-2-2-2-|

Verse
Chorus
Rest till end
Comments