Marilyn Manson - 1996 Chords & Tabs

 

1996 Chords & Tabs

Marilyn Manson Chords & Tabs

Version: 3 Type: Bass Tab 0 ratings
1 star 2 stars 3 stars 4 stars 5 stars
comments

1996 Bass Tab

   
-1996-
ARTIST: MARILYN MANSON
ALBUM: ANTICHRIST SUPERSTAR 
Tab by Benjamin Heublein (heublein@tainet.de)
Standart tuning(EADG)
it's quite a simple song 

INTRODUCTION
x - dead note
h - hammer on
p - pull off

|-  -|
|o yo| - repeat the xy-part
|ox o|
|-  -|INTRO
G|---------------|
D|o-5-----3---3-o|
A|o---3-----5---o|
E|------4--------|
thiz is my way to play  the intro but it's only noise
so you can play what you want

CHORUS
G|------------------------------|
D|------------------------------|
A|------------------------------|
E|0-3-6-5-x-xx-12-15-10-12-x-xx-|

instead you can play
G|---------------------------|
D|-------------2-5-0-2-------|
A|---------------------------|
E|0-3-6-5-x-xx----------x-xx-|
but for me the first way is easier

VERS
G|---------------------|
D|---------------------|
A|---------------------|
E|-0-00-3h5-6-6-6-65p3-|


========


1996 - Marilyn Manson
Jon Craven (nojnevarc@hotmail.com; www.geocities.com/larsramirez2001)

Intro:
G:------------|------------|------------|------------|------------|-------3----|------------|
D:-R--R--R--R-|-R--R--R--R-|-R--R--R--R-|-R--R--R--R-|-4----------|-6--------6-|------------|
A:------------|------------|------------|------------|----4--5--6-|----6-------|-6-----4--5-|
E:------------|------------|------------|------------|------------|------------|----4-------|
[ Tab from: http://www.guitartabs.cc/tabs/m/marilyn_manson/1996_btab_ver_3.html ]
G:----------|----------|----------|----------|----------|----------|----------|----------|
D:-6*******-|-********-|-********-|-********-|-********-|-********-|-********-|-********-|
A:----------|----------|----------|----------|----------|----------|----------|----------|
E:----------|----------|----------|----------|----------|----------|----------|----------|

Riff 1: (x2)
G:----------------|------------|
D:--------5-7-5-8-|-8--8--7--5-|
A:-7--7-7---------|------------|
E:----------------|------------|

Riff 2: (x12)
G:----------------|------------|
D:----------------|------------|
A:----------------|------------|
E:-0--0-0-3-5-3-6-|-6--6--5--3-|

Riff 1 (x4)

Riff 3: (x2)
G:------------|---------------|---------------|
D:----5--8--7-|-------------5-|---------------|
A:-7----------|----------7----|-5--7----------|
E:------------|-0-0--000------|------0-0--000-|

Riff 1 (x4)
Riff 2 (x8)
Riff 1 (x4)
Riff 3 (x2)

Riff 4:
G:------------|-7----------|---------------|------------|-7----------|------------|
D:----5--8--7-|----7-----5-|---------------|----5--8--7-|----7-----5-|-------8--7-|
A:-7----------|-------7----|-5--7----------|-7----------|-------7----|-5--7-------|
E:------------|------------|------0-0--000-|------------|------------|------------|

Fill:
G:----------|----------|----------|----------|----------|----------|-----------|----------|
D:-7*******-|-********-|-********-|-********-|-********-|-********-|-**-7*****-|-********-|
A:----------|----------|----------|----------|----------|----------|-----------|----------|
E:----------|----------|----------|----------|----------|----------|-----------|----------|

Riff 2 (x4)
Riff 1 (x4)
Riff 3 (x4)
Break till end (I can't really tell what's going on here)
Comments