Marillion - White Feather Chords & Tabs

 

White Feather Chords & Tabs

Marillion Chords & Tabs

Version: 1 Type: Bass Tab 0 ratings
1 star 2 stars 3 stars 4 stars 5 stars
comments

White Feather Bass Tab

Standard Tuning

|---------------------|---------------------|
|-------------7-------|-------------7-------|
|-0-----0---0-----7---|-0-----0---0-----7h9-|
|---------------------|---------------------|

|---------------------|---------------------||
|*------------7-------|-------------7------*||
|*0-----0---0-----7h9-|-0-0---0---0-----7h9*||
|---------------------|---------------------||

|---------------------|-7-7---6---6---------|
|-------------7-------|-------------7-------|
|-0-----0---0-----7h9-|-----------------7---|
|---------------------|---------------------|
                               
|---------------------|---------------------|
|-------------7-------|-------------7p6h7p6-|
|-0-----7---7-----7---|-0-----7---7---------|
|---------------------|---------------------|

|---------------------|---------------------|
|-------------7-------|---------------------|
|-0-----7---7-----7---|-4-4---5---5-6---7---|
|---------------------|---------------------|

|---------------------|---------------------|
|-------------7-------|-------------7-------|
|-0-----7---7-----7---|-0-----7---7-----7---|
|---------------------|---------------------|

|---------------------|-----------------|
|-------------7-------|-------------6---| 4/4
|-0-----7---7-----7---|-0-----7---7-----| <--
|---------------------|-----------------|

|-----------------|-----------------|-----------------|-----------------|
|-7---------------|-------------7-\-|-----------------|-------------7-\-|
|-----------------|-----------------|-0---------------|-----------------|
|-----------------|-----------------|-----------------|-----------------|
                                                                14
|-----------------|-----------------|-----------------|-----------------|
|-0---------------|-------------2-/-|-7---------------|-/(14)-----------|
|-----------------|-----------------|-----------------|---------*---\---|
|-----------------|-----------------|-----------------|-----------------|

|-----------------|-----------------|-----------------|-----------------|
|-----------------|-------------2-/-|-7---------------|-------------\---|
|-0---------------|-----------------|-----------------|-----------------|
|-----------------|-----------------|-----------------|-----------------|

|-----------------|-----------------|-----------------|-------2-4--2----|
|-0-------------0-|-0---0-----------|-----------------|---2-4---------4-|
|-----------------|-----------------|-0---------------|-3---------------|
|-----------------|-----------------|-----------------|-----------------|

VERSE

|-----------------|-----------------|-----------------|-----------------|
|-----------------|-----------------|-----------------|-----------------|
|-0---------------|---------0-------|-0---------------|---------0-------|
|-----------------|---0-2-----------|-----------------|---0-2-0---------|

|-----------------|-----------------|-----------------|-----------------|
|-0---------------|---------0-------|-----------------|-----2-2---------|
|-----------------|---0-2-0---------|-0---------------|-0-3-------------|
|-----------------|---------------0-|-----------------|---------3-------|

|-----------------|-----------------|-----------------|-----------------|
|-----------------|-----------------|-----------------|-----------------|
|-0---------------|-----------------|-0---------------|-------------0-2-|
|-----------------|-----------0-2-2-|-----------------|-----------------|

|-----------------|-----------------|-----------------|-4-2---2---------|
|-0---------------|---------0-------|-----------------|-----4---4-2-----|
|-----------------|---0-2-0---------|-0---------------|-------------4-2-|
|-----------------|---------------0-|-----------------|-----------------|

CHORUS

|-----------------|-----------------|-----------------|-----------------|
|-----------------|-----------------|-----------------|-----------------|
|-0---------------|---------0-------|-0---------------|---------0-------|
|-----------------|---0-2-2---------|-----------------|---0-2-----------|

|-----------------|-----------------|-----------4-2---|-2---------------|
|-0---------------|---------0-------|---------------4-|---4-2-4-2-4-2---|
|-----------------|---0-2-----------|-0---0-----------|---------------4-|
|-----------------|-----------------|-----------------|-----------------|
[ Tab from: http://www.guitartabs.cc/tabs/m/marillion/white_feather_btab.html ]
|-----------------|-----------------|-----------------|-----------------|
|-----------------|-----------------|-----------------|-----------------|
|-0---0-0-0-------|---------0-------|-0---0---0-------|---------0-----0-|
|-----------------|---0-2-0-------0-|-----------------|---0-2-0---------|

|-----------------|-----------------|-----------------|-----------------|
|-0---0---0-------|---------0-------|-0---------------|---2---2---------|
|-----------------|---0-2-0-------0-|---4-0---0-------|-4---4---4-2-4-2-|
|-----------------|-----------------|-----------------|-----------------|

|-----------------|-----------------|-----------------|-----------------|
|-----------------|-----------------|-----------------|-----------------|
|-0---0-0-0---0-0-|---------0-------|-0---0-0-0---0-0-|---------0---0-0-|
|-----------------|---0-2-0-------0-|-----------------|---0-2-0---------|

|-----------------|-----------------|-----------------|-----------------|
|-0---0-0-0---0-0-|---------0---0---|-----------------|-----------------|
|-----------------|---0-2-0-------4-|-0-----0-0-0-0-0-|-----------------|
|-----------------|-----------------|-----------------|---0-2-0-2-0-2-0-|

|-----------------|-----------------|-----------------|-----------------|
|-----------------|-----------------|-----------------|-----------------|
|-0-----0-0-------|-0-------0-------|-0-----0-0-------|-0-------0-----2-|
|-----------------|---0-2-0-------0-|-----------------|---0-2-0---------|

|-----------------|-----------------|-----------------|---------2-4-2---|
|-0-----0-0-----0-|-0-------0---0---|-----------------|---2-4-4-------4-|
|-----------------|---0-2-0-------4-|-0-----0-0-0-0-0-|-4---------------|
|-----------------|-----------------|-----------------|-----------------|

ENDING

|-----------------|-----------------|-----------------|-----------------|
|-----------------|-----------2-----|-----------------|-----------------|
|-0---0-0-0---0-0-|---------0-----2-|-0---0-0-0---0-0-|---------0-0-0-2-|
|-----------------|---0-2-0---------|-----------------|---0-2-0---------|

|-----------------|-----------------|-----------------|-----------------|
|-0-----0-0---0-0-|---------0---0---|---------------2-|-4---2---4-2-----|
|-----------------|---0-2-0-------4-|-0-----0-0-------|-------------4-2-|
|-----------------|-----------------|-----------------|-----------------|

|-----------------|-----------------|-----------------|-----------------|
|-----------------|-----------------|-----------------|-----------------|
|-0-----0-0-------|---------0-------|-0-----0-0-----0-|-0-0-----0-0-0-2-|
|-----------------|---0-2-0-------0-|-----------------|-----2-0---------|

|-----------------|-----------------|-----------------|-4-2---2---------|
|-0-----0-0-------|-0-0-----0-------|-----------------|-----4---4-2-----|
|-----------------|-----2-0---------|-0-----0-0-0-0-0-|-------------4-2-|
|-----------------|---------------0-|-----------------|-----------------|

|-----------------|-----------------|-----------------|-----------------|
|-----------------|-----------------|-----------------|-----------------|
|-0-----0-0---0-0-|---------0-------|-0-0-0-0-----0-0-|---------0---0-2-|
|-----------------|---0-2-0-------0-|---------2-0-----|---0-2-0---------|

|-----------------|-----------------|---------------4-|-2---2---2-------|
|-0-------0---0---|---------0---0---|-----------------|---4---4---4-4-4-|
|-------0---------|---0-2-0-------4-|-0-----0-0-0-0---|-----------------|
|-----------------|-----------------|-----------------|-----------------|

|-----------------|-----------------|-----------------|-----------------|
|-----------------|-----------2-----|-----------------|-----------7-----|
|-0-----0-0---0---|---------0-------|-0-----0-0---0---|---------0-----7-|
|-----------------|---0-2-0-------0-|-----------------|---0-2-0---------|

|-----------------|-----------------|-----------------|-----------------|
|-0-----0-0---0-0-|---------0---0---|-----------------|-----2---4---2---|
|-----------------|---0-2-0-------4-|-0-----0-0---0-0-|-2-4-----------4-|
|-----------------|-----------------|-----------------|-----------------|

|-----------------|-----------------|-----------------|-----------------|
|-----------------|-----------------|-----------------|-----------------|
|-0-----0-0-0-0-0-|---------0-------|-0-----0-0-0-0-0-|---------0---0-2-|
|-----------------|---0-2-0-------0-|-----------------|---0-2-0---------|

|-----------------|-----2-----------|-----------------|-----------------|
|-0-----0-0-0-0-0-|-4-----4-0-------|-----------------|---2-2---2-------|
|-----------------|---------------4-|-0-----0-0-0-0-0-|-4-----4----4--2-|
|-----------------|-----------------|-----------------|-----------------|

|-----------------||
|-----------------||
|-0---------------||
|-----------------||
Comments