Marillion - Uninvited Guest Chords & Tabs

 

Uninvited Guest Chords & Tabs

Marillion Chords & Tabs

Version: 1 Type: Tab 0 ratings
1 star 2 stars 3 stars 4 stars 5 stars
comments

Uninvited Guest Tab

   
#----------------------------------PLEASE NOTE---------------------------------#
#This file is the author's own work and represents their interpretation of the #
#song. You may only use this file for private study, scholarship, or research. #
#------------------------------------------------------------------------------#

Marillion - Uninvited Guest
===============================

Tabbed by Mike Cannon (smilock@hotmail.com)

Tab Explanation
===============

s	Slide
h	Hammer-on
p	Pull-off
T	Tap
B	Bend the note to the fret after the B
R	Release back to the originally bent note
A.h.	Artificial Harmonic
m	Palm Muted
//	Trem Pick (Pick as fast as possible)

==============================

Fig. 1 (Clean Electric)
======

e|-1~-0~-0-----0---0-------------------|
B|-1~-1~-----1-----------1---------1---|
G|-0~-0~---3-----0-----0---0-----0---0-|
D|-------------------3-------2h3-------|
A|-------------------------------------|
E|-------------------------------------|

Fig. 2 (Distorted Electric)
======

e|-------------------------------------|
B|-------------------------------------|
G|-10-10-8s10-10-10-8s10-10-8s10-10-10-|
D|-10-10-8s10-10-10-8s10-10-8s10-10-10-|
A|-8--8--6s8--8--8--6s8--8--6s8--8--8--|
E|-------------------------------------|


e|----------------------|
B|----------------------|
G|-----8-8-10-10--FILL--|	w/Fill 1 first time
D|-8-8-8-8-10-10--------|	w/Fill 2 second time
A|-8-8-6-6-8--8---------|
E|-6-6------------------|


Fill 1----------|  Fill 2-----|

e|----------------------------|
B|-10~------------------------|
G|----10~----------8s10-10-10-|
D|-------10~-8b10~-8s10-10-10-|
A|-----------------6s8--8--8--|
E|----------------------------|

==============================

Verse 1 (w/Fig. 1)
=======
You may not recall the moment that you asked me 
But your invitation was clear 
You'll pretend you've never met me but it's far to late
Now I'm here

Chorus (w/Fig. 2)
======
Cause I'm the one who knows what scares you
I'm the one who loves you best 
I'm the thirteenth at the table
I'm the uninvited guest 
I'm the Banquo at your banquet 
I'm the cuckoo in your nest
I'm your fifteen-stone first-footer 
I'm the uninvited guest 

Verse 2 (w/Fig. 1)
=======
I was there when you said insincere "I love you's" 
To a woman who wasn't your wife 
And I fronted you the money 
That you ran away and blew
On the biggest regret of your life 

Chorus (w/Fig. 2)
======
Cause I'm the one who knows what scares you 
I'm the who loves you best 
I'm the thirteenth at the table
I'm the uninvited guest 
I'm the Banquo at your banquet 
I'm the cuckoo in your nest 
I'm your New Year's resolution 
I'm the uninvited guest

Break
=====
I'm the face you hoped you'd never see 
But always knew you would 
I'm the one thing you knew you shouldn't do 
But did because you could 

*(w/Guitar Part) at this point
[ Tab from: http://www.guitartabs.cc/tabs/m/marillion/uninvited_guest_tab.html ]
I'm the *evil in your bloodstream 
I'm the rash upon your skin 
And you made a big mistake all right 
The day you let me in 
And you can fly to the other side of the world 
You know you'll only find
I've reserved the seat behind you 
We can talk about old times 

Guitar Part
===========
e|-------------------------12h13h15b17r15-|
B|-10~-13~-----13~-10~-13~----------------|
G|---------10~----------------------------|
D|----------------------------------------|
A|----------------------------------------|
E|----------------------------------------|


e|-12-15-13-12-----15b17------------------|
B|-------------13~-------13~--------------|
G|---------------------------10-----------|
D|------------------------------12-10~----|
A|-------------------------------------12-|
E|----------------------------------------|

e|--------------12h13h15b17r15p13-----|
B|-10b11r10-13~-------------------13~-|
G|------------------------------------|
D|------------------------------------|
A|------------------------------------|
E|------------------------------------|

Chorus (w/Fig. 2)
======
Cause I'm the one who knows what scares you 
I'm the who loves you best 
I'm the thirteenth at the table
I'm the uninvited guest
I'm the Banquo at your banquet 
I'm the cuckoo in your nest 
I'm your fifteen-stone first-footer 
I'm the uninvited guest 
Let me in!
(w/Fig. 2 (Fill 2 only))
I'm your New Year's resolution 
I'm the uninvited guest 

Guitar Solo/Outro
=================

e|-15b17-15-15b17-15-------------------|
B|-------------------13-13h15-10h13p10-|
G|-------------------------------------|
D|-------------------------------------|
A|-------------------------------------|
E|-------------------------------------|

e|---------------------------------|
B|-------13-10---------------------|
G|-12b14-------12----10~-----------|
D|----------------12-----12-10-----|
A|-----------------------------12~-|
E|---------------------------------|

e|-----------------------------------------10-|
B|--------------------------10----13----13----|
G|--------------10----12----------------------|
D|--------10-------12----12----12----12-------|
A|---8-------12-------------------------------|
E|-8---10-------------------------------------|

e|-10h12h13p12p10h12h13h15p13p12p10h12h13p12p-|
B|--------------------------------------------|
G|--------------------------------------------|
D|--------------------------------------------|
A|--------------------------------------------|
E|--------------------------------------------|
			// // // // // // //
e|-10h12h13p12p10h12h13s15-10-15-17-13-17-13-|
B|-------------------------------------------|
G|-------------------------------------------|
D|-------------------------------------------|
A|-------------------------------------------|
E|-------------------------------------------|

   // // // // // // //	//		  A.H
e|-17-20-17-20-17-20-17-20b22-22b24r22p20-------|
B|----------------------------------------------|
G|----------------------------------------21b23-|
D|----------------------------------------------|
A|----------------------------------------------|
E|----------------------------------------------|

http://www.marillionmusic.co.uk
Comments