Marillion - This Town Chords & Tabs

 

This Town Chords & Tabs

Marillion Chords & Tabs

Version: 1 Type: Tab 0 ratings
1 star 2 stars 3 stars 4 stars 5 stars
comments

This Town Tab

   
#----------------------------------PLEASE NOTE---------------------------------#
#This file is the author's own work and represents their interpretation of the #
#song. You may only use this file for private study, scholarship, or research. #
#------------------------------------------------------------------------------#

Marillion - This Town
===============================

Tabbed by Mike Cannon (smilock@hotmail.com)

Tab Explanation
===============

s	Slide
h	Hammer-on
p	Pull-off
T	Tap
B	Bend the note to the fret after the B
R	Release back to the originally bent note
A.h.	Artificial Harmonic
m	Palm Muted
//	Trem Pick (Pick as fast as possible)

==============================

Fig. 1 (w/Distortion)
======
e|---------------------|
B|-2-3-----------8-7---|
G|-2-2-0-2-2-5-5-7-7-7-|
D|-2---2-4-2-7-5-9-7-9-|
A|-0---0---0-0-0---0-0-|
E|---------------------|

Chord List
==========

   E5 A5 G5 D5 B5
e|---------------|
B|---------------|
G|-9--------7--4-|
D|-9--7--5--7--4-|
A|-7--7--5--5--2-|
E|----5--3-------|

==============================

Verse 1 (w/Fig. 1)
=======
The cars leave their trails of hot and cold light inside my head
Like burned-in long exposure pictures 
The wheels spin slowly backwards
Strobing in the amber light 
And the rain comes down and washes my brain
But it don't get clean 

Chorus
======
Chord Progression:
| E5 | A5 | G5 | D5 |

This town has turned me into what I have become 
This town dresses me up like a stranger 
This town performs in the window like the ultimate gift 
This town takes us down 
I feel like I'm losing you to this town 

Verse 2 (w/Fig. 1)
=======
We were saving our money for half of our lives 
We were saving our dreams 
And we came to this place to make the chances real 
In the big city 
But I've been counting the days
I've been watching you change 
And I can feel it dying 
The noise outside takes you in its arms 
Like a lamb to a lion 

Bridge (Play B5 4 times)
======
And down there somewhere among the noise 
The magazine dolls and the big money boys 
Move silently on their easy heels 
They move silently on their greasy wheels 
[ Tab from: http://www.guitartabs.cc/tabs/m/marillion/this_town_tab.html ]
Chorus (there is a guitar part but I can't make it out)
======
This town has turned me into what I have become 
This town dresses you up like a stranger 
This town hangs around in the doorway and tells me I'm late
This town takes us down, takes us down 
I feel like I'm losing you to this town 

Solo
====

   |-6 times-|
e|-17-16-------------------------------|
B|-------17-14-17b19~----------7-------|
G|-------------------------------------|
D|--------------------4s7-9b11---9b11~-|
A|-------------------------------------|
E|-------------------------------------|

*  |-6 times-|
e|-17-16-------19b21-19b21-22b24-22b24-|
B|-------17-14-------------------------|
G|-------------------------------------|
D|-------------------------------------|
A|-------------------------------------|
E|-------------------------------------|

e|-16b17r16------------------------------|
B|----------17~-14b15r14-----------------|
G|-----------------------16~-13b14r13----|
D|------------------------------------14-|
A|---------------------------------------|
E|---------------------------------------|

e|--------------------------12----------|
B|-10-9---10-9--------14p12----14-17b19-|
G|------9------9b11~--------------------|
D|--------------------------------------|
A|--------------------------------------|
E|--------------------------------------|

e|-------14h16h17p16p14----------------|
B|-17b19----------------17p14----------|
G|----------------------------16b17r16-|
D|-------------------------------------|
A|-------------------------------------|
E|-------------------------------------|

e|----------------------------------------|
B|----------------------------------------|
G|-14----14h16p14-------------------------|
D|----16----------17p14-------------------|
A|----------------------16p14----------14-|
E|----------------------------14-16-17----|

e|-------------------------------------14-|
B|----------------------17-14----14-17----|
G|-------------13-14-16-------16----------|
D|-------14-16----------------------------|
A|-16-17----------------------------------|
E|----------------------------------------|

e|-16-17-16--------------------|
B|----------17-14----17-17b19~-|
G|----------------16-----------|
D|-----------------------------|
A|-----------------------------|
E|-----------------------------|

*The morning breaks and I watch you awake 
This town takes you down away from me again 

http://www.marillionmusic.co.uk
Comments