Marillion - Made Again Chords & Tabs

 

Made Again Chords & Tabs

Marillion Chords & Tabs

Version: 2 Type: Tab 0 ratings
1 star 2 stars 3 stars 4 stars 5 stars
comments

Made Again Tab

Made Again


Intro & Verse  (repeat x 4)
|---------------|------------------|------------------|---------0-----------|
|9-----9--9---9-|--7---5---4---5-4-|--4-----5---4-----|--0------0------0-2--|
|---------------|----4-------------|----4---------4---|----2----2-----------|
|--9--------9---|------------7-----|------------------|------2--2-----------|
|7---7----------|--4-----4---------|--2---2---2-----2-|--0------------------|
|---------------|------------------|------------------|---------------------|


Middle section  
|-----------------------------|-------------------|---------------------|
|--9------10-----14-----17----|--16-----16-16-----|---------------------|
|-----------------------------|-------------------|---------------------|
|-----9------9----------------|-------------------|---------------------|
|--7------9------12-14--16-14-|--14-14-----14-----|---------------------|
|-----------------------------|--------0----------|---------------------|

[ Tab from: http://www.guitartabs.cc/tabs/m/marillion/made_again_tab_ver_2.html ]
Repeat verse x 2 but note alternative ending prior to 2nd middle section
---|---------0------|--------------------|-----------------|
---|--0--------4----|--4-------5---4-----|--4-----5---4----|
---|----2--------4--|----4-----------4---|----4---------4--|
---|-----2----------|--------------------|-----------------|
---|--0------0------|--------------------|-----------------|
---|----------------|--4-----4----4----0-|--2---2---2------|


Repeat middle section but this time with extended ending shown below
|-----------------------------|---------------------|--------------------|
|--9------10-----14-----17----|--16-----16-16----16-|--14-----14-14--14--|
|-----------------------------|---------------------|--------------------|
|-----9------9----------------|---------------------|--------------------|
|--7------9------12-14--16-14-|--14-14-----14-------|--12-12-----12------|
|-----------------------------|--------0-------0----|--------0------0----|

---------------|
--16-----16-16-|
---------------|
---------------|
--14-14-----14-|
--------0------|


Repeat Verse x 1, pause, then play chord progression and repeat to end

E maj			  F min		  B maj add 5		A maj add 9
|-0------------|-2----------------|-0-----------------|-0-------------------|
|-0------------|-2----------------|-0-----------------|-0-------------------|
|-1------------|-2----------------|-4-----------------|-2-------------------|
|-2------------|-4----------------|-4-----------------|-2-------------------|
|-2------------|-4----------------|-2-----------------|-0-------------------|
|-0------------|-2----------------|-x-----------------|-x-------------------|

Chord progression may vary in particular chord positions 
Comments