Marillion - Lords Of The Backstage Chords & Tabs

 

Lords Of The Backstage Chords & Tabs

Marillion Chords & Tabs

Version: 1 Type: Bass Tab 0 ratings
1 star 2 stars 3 stars 4 stars 5 stars
comments

Lords Of The Backstage Bass Tab

Standard Tuning

VERSE

|---------------------------|---------------2---0-------|
|---------------------------|-----------------------2---|
|-3-------------3---3-----0-|-3-------------------------|
|-----------------------3---|---------------------------|

|-----------------------5\--|---------------------------|
|---------------------------|---------------------------|
|-3-------------3---3-------|-3-----------------------0-|
|---------------------------|---------------0---1---3---|

|---------------------------|-----------------------0---|
|---------------------------|---------------------------|
|-3-------------3---3-----0-|-3-------------3---3-------|
|-----------------------3---|---------------------------|

|-----------------------0---|---------------2---5---2---|
|---------------------------|---------------------------|
|-3-------------3---3-------|-3-------------------------|
|---------------------------|---------------------------|

|---------------------------|---------5-------------0---|
|---------------------------|---------------------------|
|-3-------------3---3-----0-|-3-------------3---3-------|
|-----------------------3---|---------------------------|

|---------------------------|-----------------------0-2-|
|---------------------------|---------------------------|
|-3-------------3---3-----0-|-3-------------3---3-------|
|-----------------------3---|---------------------------|

PRE-CHORUS

|---------2-2-2-|---------2-2---|---------2-2-2-|---------2-----|
|-0---0---------|-0---0---------|-0---0---------|-0---0-----0-2-|
|---------------|---------------|---------------|---------------|
|---------------|---------------|---------------|---------------|
                                              
|-0---0---7-7-7-|-0---0---7-7---|-0---0---7-7-7-|-0---7---0-7-\-|
|---------------|---------------|---------------|---------------|
|---------------|---------------|---------------|---------------|
|---------------|---------------|---------------|---------------|

CHORUS

|---------------------------|---------5-\---------------|
|---------------------------|-----------------------3-5-|
|-3-------------3---3-----0-|-3-------------3---3-------|
|-----------------------3---|---------------------------|

|---------------------------|---------5-\-----------0-2-|
|---------------------------|---------------------------|
|-3-------------3---3-----0-|-3-------------3---3-------|
|-----------------------3---|---------------------------|
[ Tab from: http://www.guitartabs.cc/tabs/m/marillion/lords_of_the_backstage_btab.html ]
|---------2-2-2-|---------2-2---|---------2-2-2-|---------2-----|
|-0---0---------|-0---0-------0-|-0---0---------|-0---0-----0-2-|
|---------------|---------------|---------------|---------------|
|---------------|---------------|---------------|---------------|
                            
|-0---0---7-7-7-|-0---0---7-7---|-0---0---7-7-7-|-0---0-7-0-7-\-|
|---------------|---------------|---------------|---------------|
|---------------|---------------|---------------|---------------|
|---------------|---------------|---------------|---------------|

VERSE

|---------------------------|-----------------------0---|
|---------------------------|---------------------------|
|-3-------------3---3-----0-|-3-------------3---3-------|
|-----------------------3---|---------------------------|

|---------------------------|---------------------------|
|---------------------------|---------------------------|
|-3-------------3---3-----0-|-3-----------------------0-|
|-----------------------3---|---------------0---1---3---|

|---------------------------|-----------------------5---|
|-----------------------3-5-|---------------------------|
|-3-------------3---3-------|-3-------------3---3-------|
|---------------------------|---------------------------|

|---------------------------|-----------------------0-2-|
|---------------------------|---------------2---3-------|
|-3---3---------3---3-----0-|-3-------------------------|
|-----------------------3---|---------------------------|

PRE-CHORUS

|---------2-2-2-|---------2-2-2-|---------2-2-2-|---------2-----|
|-0---0---------|-0---0---------|-0---0---------|-0---0-----0-2-|
|---------------|---------------|---------------|---------------|
|---------------|---------------|---------------|---------------|
                                    
|-0---0---7-7-7-|-0---0---7-7-7-|-0---0---7-7-7-|-0---7---0-7-\-|
|---------------|---------------|---------------|---------------|
|---------------|---------------|---------------|---------------|
|---------------|---------------|---------------|---------------|

CHORUS

|---------------------------|---------5-\---------------|
|---------------------------|-----------------------3-5-|
|-3-------------3---3-----0-|-3-------------3---3-------|
|-----------------------3---|---------------------------|

|---------5-\---------------|---------5-\-----------0-2-|
|---------------------------|-------------------2-------|
|-3-------------3---3-----0-|-3-------------3-----------|
|-----------------------3---|---------------------------|

|---------2-2-2-|---------2-2-2-|---------2-2-2-|---------2-----|
|-0---0---------|-0---0---------|-0---0---------|-0---0-----0-2-|
|---------------|---------------|---------------|---------------|
|---------------|---------------|---------------|---------------|
              
|-0---0---7-7-7-|-0---0---7-7-7-|-0---0---7-7-7-|-0---0---7-----||
|---------------|---------------|---------------|-----------5-\-||
|---------------|---------------|---------------|---------------||
|---------------|---------------|---------------|---------------||
Comments