Mariah Carey - We Belong Together Chords & Tabs

 

We Belong Together Chords & Tabs

Mariah Carey Chords & Tabs

Version: 1 Type: Tab 0 ratings
1 star 2 stars 3 stars 4 stars 5 stars
comments

We Belong Together Tab

Intro
e|-0-----------0-1-0---------------|
B|--3-3-1--1-3-------3-3-1---------|
G|---------------------------------|
D|---------------------------------|
A|---------------------------------|
E|---------------------------------|
Verse
e|-------0------0-------0----------|
B|-1-1-3--3-1-3---3-1-3---1-3------|
G|---------------------------------| (x2)
D|---------------------------------|
A|---------------------------------|
E|---------------------------------|

e|---------------------------------|
B|-1-1-1-3-3-1-1-1-3-3-1-1-1-3-3---|
G|---------------------------------|
D|---------------------------------|
A|---------------------------------|
E|---------------------------------|

e|-----5-3-1-1h0-------------------|
B|-1-1-----------3-1---------------|
G|---------------------------------|
D|---------------------------------|
A|---------------------------------|
E|---------------------------------|
[ Tab from: http://www.guitartabs.cc/tabs/m/mariah_carey/we_belong_together_tab.html ]
e|-3-8-3-3-1-1-0-0---------0-------|
B|-----------------3-3-1-3---3-----|
G|---------------------------------| (x3)
D|---------------------------------|
A|---------------------------------|
E|---------------------------------|
Pre-chorus
e|-5-3h0-----0---------------------|
B|-------1-3-----------------------|
G|---------------------------------|
D|---------------------------------|
A|---------------------------------|
E|---------------------------------|
Chorus
e|-0-0-3-1-0---------0--3-1-0---------0--3-1-0-----0---------------|
B|-----------3-1-3h1--3-------3-1-3h1--3-----3-3------------3-1----|
G|---------------------------------------------------0-0-0---------| (x2)
D|-----------------------------------------------------------------|
A|-----------------------------------------------------------------|
E|-----------------------------------------------------------------|

listen to the song. it sounds almost exactly like it.
Comments