Mariah Carey - My All Chords & Tabs

 

My All Chords & Tabs

Mariah Carey Chords & Tabs

Version: 1 Type: Tab 0 ratings
1 star 2 stars 3 stars 4 stars 5 stars
comments

My All Tab

Hey, this is the easiest tab for beginners, just to practise their finger-picking.
Its jst the notes of the verses...enjoy ;D

e|----4---2-0-------------------------4---2-0-2-0------
g|-4----4---------4--------------4-4----4--------------
d|------------3-3---3--6-4-3-4-1-----------------------
a|-----------------------------------------------------
e|-----------------------------------------------------

^^"Im thinking of you in my sleepless solitude tonight..."^^
[ Tab from: http://www.guitartabs.cc/tabs/m/mariah_carey/my_all_tab.html ]
e|-----------------------------------------------------
g|-----4-----------------------------------------------
d|-3-3---3-6-4-3-4-1--3-4-6-8-4-3-4-6-8-3-1-3-4-6-3-4p3
a|-----------------------------------------------------
e|-----------------------------------------------------

^^"Then my heart just won't let me be right cause i've drowned in you..."^^

e|-----------------
g|-----------------
d|-1-3-4-6-3-4-1---
a|-----------------
e|-----------------

^^"si-i-i-i-i-i-i-ide"^^

Repeat for all verses
Comments