Mariah Carey - Hero Chords & Tabs

 

Hero Chords & Tabs

Mariah Carey Chords & Tabs

Version: 1 Type: Bass Tab 0 ratings
1 star 2 stars 3 stars 4 stars 5 stars
comments

Hero Bass Tab

Well, don't get me wrong, I don't listen to Carey much, but I had to play this song for
my school's chorus, so I figured the tabs out, and some day one of you may need to do
this song too, and I want to support music any way I can, even if it is through Mariah
this time =)

-----------------------------------------------------------------------
			     HERO - MARIAH CAREY
-----------------------------------------------------------------------

Tabbed By : Toney V

Tuning: EADG

Slow Tempo

There's a  he-ro___			 There's an answer____
G|--------|--------|--------|--------|--------|--------|
D|-4 Rests|3-------|1-------|--------|--------|--------|
A|--Here--|--------|--------|5-------|33-----|--------|
E|--------|--------|--------|--------|---0----|1--11--1|

				  And then a hero comes along..
G|--------|--------|--------|--------|--------|--------|--------|
D|--------|1--1----|--------|--------|--------|--------|--------|
A|--------|--------|3--33---|--------|5--55--3|1--11--0|----3--3|
E|3--33--3|----0---|--------|1--11--0|--------|--------|3--3----|

     So when you feel..			  It's a long road..
G|--------|--------|--------|--------|--------|3-----5-|--------|
D|--------|--------|--------|--------|3-------|--------|--------|
A|--------|5--53--3|1--1----|----1--1|--------|--1---3-|--------|
E|1--11--0|--------|----5--5|3--3----|---1----|--------|1--11--1|
[ Tab from: http://www.guitartabs.cc/tabs/m/mariah_carey/hero_btab.html ]
G|--------|--------|--------|--------|--------|--------|--------|
D|--------|--------|--------|--------|--------|--------|--------|
A|--------|5--55--5|3--33--3|--------|--------|4--44--4|3--33--3|
E|0--00--0|--------|--------|1--11--1|3--33--3|--------|--------|

      And then a hero comes along...
G|--------|--------|--------|--------|--------|--------|--------|
D|--------|--------|--------|--------|--------|--------|--------|
A|--------|5--55-/4|1-11-/0|----3--3|--------|5--53--3|1--10--0|
E|1--11--0|--------|--------|3--3----|1--11--0|--------|--------|

     The a hero lies in you...
G|--------|--------|--------|--------|--------|--------|--------|
D|--------|3--33--3|0--03---|--------|--------|--------|--------|
A|---/3--3|--------|5--58--8|--------|4--43--3|--------|4--43--3|
E|3--3----|1--11--1|--------|4--40--0|--------|43-1-0-0|--------|

 				   And then a hero comes along...
G|--------|--------|--------|--------|--------|--------|--------|
D|--------|--------|--------|--------|--------|--------|--------|
A|--------|4--43--3|3--33---|--------|5--55--3|2-22---|----3--3|
E|4--40--0|--------|--------|1--11--0|--------|-------5|3--3----|

G|--------|--------|--------|--------|--------|-5------|--------|
D|--------|--------|--------|--------|--------|--------|--------|
A|--------|--------|1--1----|----3--3|1--1----|-1------|--------|
E|1--11--0|5--53--3|----5--5|1--1----|----5--5|1-------|--------|
Comments