Marduk - The Black Chords & Tabs

 

The Black Chords & Tabs

Marduk Chords & Tabs

Version: 1 Type: Tab 0 ratings
1 star 2 stars 3 stars 4 stars 5 stars
comments

The Black Tab

   
  "The Black" as performed by Marduk on their live-album "Live In Germany" 

Transcription by Lord Úpir on 20-02-99

Downloaded from The Black Death... Black & Death Metal Page
 http://tinpan.fortunecity.com/joolsholland/755/

This one's from the Heaven Shall Burn tour, line-up:
Fredrik Andersson - Drums Of Doom
Morgan SteinMeyer Håkansson - Guitars
Legion - Mouth Of Satan
B. War - Bass
Session Second Guitar on the tour played by Peter Tägtgren

My compliments for the inlay booklet from "Live In Germany". That rules!

Normal tuning (EADGBe)

Notation Legend:
15\     slide down the neck from the 15th fret to some indefinate point
8\4     slide down the neck from the 8th fret to the 4th fret
3/4     slide up the neck from the 3rd fret to the 4th fret
(8)     ghost note (the note is striked before, but it sounds through)
4tr5    trill (repeated quick hammer-on and pull-off between two notes)
*       see note belows lines

The guitar-riff (RIFF1) intro is the most beautiful thing from the whole album. I finally 
figured some riff from which I think it's good.
The only problem with Marduk and Dark Funeral is that everything is played this fucking fast
that you can only play the song along with the albums if you play everything out of your memory;
it's so fast, you don't have the time to check a monitor or a piece of paper to see what's played
next...


INTRO:
LET JESUS FUCK YOU, LET JESUS FUCK YOU!
OR LET JESUS BE FUCKED BY THE BLOODCULTS (?) OF THE WOODS FOR A THOUSAND YEARS!!!

First there is feedback, but I know shit. Next:
e|------|
B|------|
G|------|
D|------|
A|-17\--|
E|------|

RIFF 1: This mega super awesome-fucking-awesome goddamn riff is played 8 times at high speed...
e|-----------------|
B|-----------------|
G|-----------------|
D|-0-8-7-3-0-6-5-8-|
A|-----------------|
E|-----------------|

....third time guitar 2 joins playing following twice...
e|-------------------|
B|-------------------|
G|-------------------|
D|-4-------3---------|
A|-4-------3---------|
E|-2-------1---------|

....and the last four times gtr2 plays 
e|-------------------|
B|-------------------|
G|-------------------|
D|-------------------|
A|-44444444333333333-|
E|-22222222111111111-|
YAAAAAAAAAAAAAAAAA!!!!

following gtr1, while gtr2, drums and bass are out
e|-----|
B|-----|
G|-----|
D|-(8)-|
A|-----|
E|-----|

gtr2 (played once):
e|-------------------------------------|
B|-------------------------------------|
G|-------------------------------------|
D|-------------------------------------|
A|-4---4/5---4---4/5---4---4/5-2-2-2-2-|
E|-2---2/3---2---2/3---2---2/3-0*0-0-0-|
* Note: gtr1 pick slides here

Then the same riff but without the pauses 
and slides, played 2 times:
e|-------------------------------------|
B|-------------------------------------|
G|-------------------------------------|
D|-------------------------------------|
A|-4-4-4-5-4-4-4-4-5-4-4-4-4-5-2-2-2-2-|
E|-2-2-2-3-2-2-2-2-3-2-2-2-2-3-0-0-0-0-|

third time a little different
e|-------------------------------------|
B|-------------------------------------|
G|-------------------------------------|
D|---------------------------------2-3-|
A|-4-4-4-5-4-4-4-4-5-4-4-4-4-5-3-2-0-1-|
E|-2-2-2-3-2-2-2-2-3-2-2-2-2-3-1-0-----|

Let's get it on...
e|------------------------------------------------|
B|------------------------------------------------|
G|------------------------------------------------|
D|---------------------------------------44445555-|
A|-4444444444444444444444444444444444444422223333-|
E|-22222222222222222222222222222222222222---------|

e|-------------------------------------------------------------------|
B|-------------------------------------------------------------------|
G|-------------------------------------------------------------------|
D|--------------------------------------------4-5-----4-5------------|
A|-44444444444444444444444444444444444444-4-3-2-3-4-3-2-3-4-3----(3)-|
E|-22222222222222222222222222222222222222-2-1-----2-1-----2-1----(1)-|
[ Tab from: http://www.guitartabs.cc/tabs/m/marduk/the_black_tab.html ]
e|---------------------------------------------------------------|
B|---------------------------------------------------------------|
G|---------------------------------------------------------------|
D|---------------------------------------------------------------|
A|-5-6-5-6-------(6)-5-6-5-6-------(6)-5-6-5-6-------(6)-5-6-5-6-|
E|-3-4-3-4-------(4)-3-4-3-4-------(4)-3-4-3-4-------(4)-3-4-3-4-|
 |                                                               |
e|---------------------------------------------------------------|
B|---------------------------------------------------------------|
G|---------------------------------------------------------------|
D|---------2-2-2-(2)---------2-2-2-(2)---------2-2-2-(2)---------|
A|---------2-2-2-(2)---------2-2-2-(2)---------2-2-2-(2)---------|
E|---------0-0-0-(0)---------0-0-0-(0)---------0-0-0-(0)---------|
                                                           
e|---------------------------------------------------------------|
B|---------------------------------------------------------------|
G|---------------------------------------------------------------|
D|---------------------------------------------------------------|
A|-5-6-5-6-5---------5-6-5-6-5---------5-6-5-6-5---------5-6-5-6-|
E|-3-4-3-4-3---------3-4-3-4-3---------3-4-3-4-3---------3-4-3-4-|
 |                                                              
e|---------------------------------------------------------------|
B|---------------------------------------------------------------|
G|---------------------------------------------------------------|
D|-2-2-2-2-2-2-2-2-2-2-2-2-2-2-2-2-2-2-2-2-2-2-2-2-2-2-2-2-2-2-2-|
A|-2-2-2-2-2-2-2-2-2-2-2-2-2-2-2-2-2-2-2-2-2-2-2-2-2-2-2-2-2-2-2-|
E|-0-0-0-0-0-0-0-0-0-0-0-0-0-0-0-0-0-0-0-0-0-0-0-0-0-0-0-0-0-0-0-|

e|------------------------------------
B|------------------------------------
G|------------------------------------
D|------------------------------------
A|-0--------8-------7------4tr5-------
E|------------------------------------

  ------------------------------------|
  ------------------------------------|
  -2-------10-------9-------6-7-6-7-6-|
  -2-------10-------9-------6-7-6-7-6-|
  -0--------8-------7-------4-5-4-5-4-|
  ------------------------------------|

                                    4x
e|------------------------------------|
B|------------------------------------|
G|-2-------10-------9-------6---------|
D|-2-------10-------9-------6---------|
A|-0--------8-------7-------4---------|
E|------------------------------------|

This part again
e|-------------------------------------|
B|-------------------------------------|
G|-------------------------------------|
D|-------------------------------------|
A|-4-4-4-5-4-4-4-4-5-4-4-4-4-5-2-2-2-2-|
E|-2-2-2-3-2-2-2-2-3-2-2-2-2-3-0-0-0-0-|

e|-------------------------------------|
B|-------------------------------------|
G|-------------------------------------|
D|---------------------------------2-3-|
A|-4-4-4-5-4-4-4-4-5-4-4-4-4-5-3-2-0-1-|
E|-2-2-2-3-2-2-2-2-3-2-2-2-2-3-1-0-----|

And this...
e|---------------------------------------------------------------|
B|---------------------------------------------------------------|
G|---------------------------------------------------------------|
D|---------------------------------------------------------------|
A|-5-6-5-6-------(6)-5-6-5-6-------(6)-5-6-5-6-------(6)-5-6-5-6-|
E|-3-4-3-4-------(4)-3-4-3-4-------(4)-3-4-3-4-------(4)-3-4-3-4-|
 |                                                               |
e|---------------------------------------------------------------|
B|---------------------------------------------------------------|
G|---------------------------------------------------------------|
D|---------2-2-2-(2)---------2-2-2-(2)---------2-2-2-(2)---------|
A|---------2-2-2-(2)---------2-2-2-(2)---------2-2-2-(2)---------|
E|---------0-0-0-(0)---------0-0-0-(0)---------0-0-0-(0)---------|
                                                           
e|---------------------------------------------------------------|
B|---------------------------------------------------------------|
G|---------------------------------------------------------------|
D|---------------------------------------------------------------|
A|-5-6-5-6-5---------5-6-5-6-5---------5-6-5-6-5---------5-6-5-6-|
E|-3-4-3-4-3---------3-4-3-4-3---------3-4-3-4-3---------3-4-3-4-|
 |                                                              
e|---------------------------------------------------------------|
B|---------------------------------------------------------------|
G|---------------------------------------------------------------|
D|-2-2-2-2-2-2-2-2-2-2-2-2-2-2-2-2-2-2-2-2-2-2-2-2-2-2-2-2-2-2-2-|
A|-2-2-2-2-2-2-2-2-2-2-2-2-2-2-2-2-2-2-2-2-2-2-2-2-2-2-2-2-2-2-2-|
E|-0-0-0-0-0-0-0-0-0-0-0-0-0-0-0-0-0-0-0-0-0-0-0-0-0-0-0-0-0-0-0-|

e|------------------------------------
B|------------------------------------
G|------------------------------------
D|------------------------------------
A|-0--------8-------7------4tr5-------
E|------------------------------------

  ------------------------------------|
  ------------------------------------|
  -2-------10-------9-------6-7-6-7-6-|
  -2-------10-------9-------6-7-6-7-6-|
  -0--------8-------7-------4-5-4-5-4-|
  ------------------------------------|

                                    4x
e|------------------------------------|
B|------------------------------------|
G|-2-------10-------9-------6---------|
D|-2-------10-------9-------6---------|
A|-0--------8-------7-------4---------|
E|------------------------------------|

e|-------------------------------------|
B|-------------------------------------|
G|-------------------------------------|
D|-------------------------------------|
A|-4---4/5---4---4/5---4---4/5-2-2-2-2-|
E|-2---2/3---2---2/3---2---2/3-0-0-0-0-|

e|-------------------------------------|
B|-------------------------------------|
G|-------------------------------------|
D|-------------------------------------|
A|-4-4-4-5-4-4-4-4-5-4-4-4-4-5-2-2-2-2-|
E|-2-2-2-3-2-2-2-2-3-2-2-2-2-3-0-0-0-0-|

Last riff
e|-------------------------------------|
B|-------------------------------------|
G|-------------------------------------|
D|-------------------------------------|
A|-4-4-4-5-4-4-4-4-5-4-4-4-4-5-2-2-2-2-|
E|-2-2-2-3-2-2-2-2-3-2-2-2-2-3-0-0-0-0-|


Weird ending with lots of feedback, trills and whammy bars. 
I find this:
B|-20tr19-|

....and an low E5 is ringing during the ending


Then the song continues with
Darkness It Shall Be, see my transcription on The Black Death...
I need lyrics from this song and Darkness It Shall Be. Do you have them? Please mail 'm to me.
Comments