Marduk - Slay The Nazarene Chords & Tabs

 

Slay The Nazarene Chords & Tabs

Marduk Chords & Tabs

Version: 1 Type: Tab 0 ratings
1 star 2 stars 3 stars 4 stars 5 stars
comments

Slay The Nazarene Tab

Marduk – Slay The Nazarene
 
 
Standard tuning
[ Tab from: http://www.guitartabs.cc/tabs/m/marduk/slay_the_nazarene_tab.html ]
 
Riff 1
----------------------------------|----------------------------------|
----------------------------------|----------------------------------|
----------------------------------|----------------------------------|
-3---------------6----------------|-3---------------4----------------|
-3---------------6----------------|-3---------------4----------------|
-1---------------4----------------|-1---------------2----------------|
 
 
Riff 2
----------------------------------|----------------------------------|
----------------------------------|----------------------------------|
----------------------------------|----------------------------------|
-3-------6-------3---10--9---6----|-3-------6-------3---10--9---6----|
-3-------6-------3---10--9---6----|-3-------6-------3---10--9---6----|
-1-------4-------1---8---7---4----|-1-------4-------1---8---7---4----|
 
 
Riff 3
------------------------------------------------------|
------------------------------------------------------|
------------------------------------------------------|
-----9-8-9-------9-8-9-------9-8-9---6---7---9---10---|
-2---7-6-7---2---7-6-7---2---7-6-7---4---5---7---8----|
-0-----------0-----------0----------------------------|
 
 
------------------------------------------------------|
------------------------------------------------------|
------------------------------------------------------|
-----9-8-9-------9-8-9-------9-8-9---6---7---10--9----|
-2---7-6-7---2---7-6-7---2---7-6-7---4---5---8---7----|
-0-----------0-----------0----------------------------|
 
 
Then play :
            Riff 2
            Riff 3
 
 
Riff 4
----------------------------------|----------------------------------|
----------------------------------|----------------------------------|
-----------------5----------------|----------------------------------|
-2-------5---2---5----------------|-2-------5---2---3----------------|
-2-------5---2---3----------------|-2-------5---2---3----------------|
-0-------3---0--------------------|-0-------3---0---1----------------|
 
 
Riff 5
----------------------------------|----------------------------------|
----------------------------------|----------------------------------|
----------------------------------|----------------------------------|
-9---10--9-------3---6---5---3----|-9---10--9-------3---6---5---3----|
-7---8---7-------3---6---5---3----|-7---8---7-------3---6---5---3----|
---------------0-1---4---3---1----|---------------0-1---4---3---1----|
 
 
Then play :
            Riff 4
            Riff 5
            Riff 3
            Riff 2
            Riff 3
            Riff 1
            Riff 3
Comments