Marduk - Schorched Earth Chords & Tabs

 

Schorched Earth Chords & Tabs

Marduk Chords & Tabs

Version: 1 Type: Tab 0 ratings
1 star 2 stars 3 stars 4 stars 5 stars
comments

Schorched Earth Tab

   
MARDUK
'Schorched Earth'

from the album 'Panzer Division Marduk'

transcribed by
  Karl Westin (max_c84@hotmail.com)

find more metal tablatures at
  http://venus.spaceports.com/~metaltab/

intro
-a:
---------------------------------
---------------------------------
---------------------------------
-2-5---2-5-9-8-5---2-5---2-9-8-5-
-0-3---0-3-7-6-3---0-3---0-7-6-3-
-0-3---0-3-7-6-3---0-3---0-7-6-3-

-b: tremolo picking
---------------------------------
---------------------------------
---------------------------------
-2-5---2-5-9-8-5---2-5---2-9-8-5-
-0-3---0-3-7-6-3---0-3---0-7-6-3-
---------------------------------
(play -b x2)

verse:              1.            2.
-------------------|-------------|------------|
-------------------|-------------|------------|
-------------------|-------------|------------|
-------------------|-------------|------------|
-7-6-7-10-10-10-10-|--7-6-7-10-7-|--7--10-7-6-|
-------------------|-------------|------------|
                    1.            2.
-------------------|-------------|------------|
-------------------|-------------|------------|
-------------------|-------------|------------|
-------------------|-------------|------------|
-8-7-8-11-11-11-11-|--8-7-8-11-8-|--8--11-8-7-|
-------------------|-------------|------------|
[ Tab from: http://www.guitartabs.cc/tabs/m/marduk/schorched_earth_tab.html ]
pre-chorus:
(I don't really know if this is right, cause its pretty
difficult to hear it on the record, but try this and follow
the vocal lines.)
-------------------------------------
-------------------------------------
-------------------------------------
-----9-8----9-8-8-9-8----------------
-----7-6----7-6-6-7-6----------------
-x-x-7-6--x-7-6-6-7-6--x-x-7-6-4-6-7-
(x2)
chorus:
play the verse riff but use powerchords on the notes instead

bridge:                           play 2x
------------------------------------------
------------------------------------------
------------------------------------------
------------------------------------------
-9-8-9-11-12-11-9-8-----------------------
---------------------9-8-9-11-12-11-9--11-
                                  play 2x last time:
------------------------------------------|-----
------------------------------------------|-----
------------------------------------------|-----
-9-8-9-11-12-11-9-8-----------------------|-9---
---------------------9-8-9-11-12-11-9--11-|-9---
------------------------------------------|-7---
tremolo picking:
------------------------------------------------
------------------------------------------------
-11--8--4-3--1--3-4-3-1-3-----------------------
------------------------------------------------
------------------------------------------------
------------------------------------------------

play:
intro-b x2
verse
pre-chorus x2
chorus
bridge without the last B chord
intro-a first 2 chords

                      _
                     | |
                     | |
                     | |
                   __| |__
                  |__   __|
                     |_|
Comments