Marduk - Materialized In Stone Chords & Tabs

 

Materialized In Stone Chords & Tabs

Marduk Chords & Tabs

Version: 1 Type: Tab 0 ratings
1 star 2 stars 3 stars 4 stars 5 stars
comments

Materialized In Stone Tab

Marduk - Materialized In Stone (taken from the "Opus Nocturne" album)

Tuning: I transcribed it in E, this version is exactly what you can hear on the album.
I think they tuned their guitars to C or D on that album, so this song is maybe played
completly differently.

Email comments and suggestions at: cfabro@arcadis.be

Main riff

E||-----------------------------------------------------------------------------------|
B||-----------------------------------------------------------------------------------|
G||-------------------------------------------------------------------------------4---|
D||--6-6-6--4--6-6-6--4-4--4-4--4-4--4-4--4---7--7-7--7-7--7-7--7-7--7-7--7---2---4---|
A||--6-6-6--4--6-6-6--4-4--4-4--4-4--4-4--4---7--7-7--7-7--7-7--7-7--7-7--7---2---2---|
E||--4-4-4--2--4-4-4--2-2--2-2--2-2--2-2--2---5--5-5--5-5--5-5--5-5--5-5--5---0-------|



Riff 2

E||----------------------------------------------------|
B||----------------------------------------------------|
G||----------------------------------------------------|
D||-----------6------0--4-4----------------------------|
A||--4--4-4---4---4--0--2-2----------------------------|
E||--2--2-2-------2------------------------------------|

Riff 3
[ Tab from: http://www.guitartabs.cc/tabs/m/marduk/materialized_in_stone_tab.html ]
E||----------------------------------------------------|
B||----------------------------------------------------|
G||----------------------------------------------------|
D||--4--4---6--4-4--6--4-4---4--4---6--4-4--6--4-4-----|
A||--5--5---5--5-5--5--5-5---5--5---5--5-5--5--5-5-----|
E||--5--5--------------------5--5----------------------|
PM             ...     ...             ...

   ---------------------------------------------------|
   ---------------------------------------------------|
   ---------------------------------------------------|
   --7--7---9--7-7--9--7-7---7--7---9--7-7--9--7-7----|
   --9--9---9--9-9--9--9-9---9--9---9--9-9--9--9-9----|
   --9--9--------------------9--9---------------------|
PM             ...     ...             ...     ...

Riff 4

E||--------------------------------------------------------------
B||--------------------------------------------------------------
G||--------------------------------------------------------------
D||--------------------------------------------------------------
A||--7--7-7-7-7--7--7-7-7-7---10--10-10-10-10--10--10-10-10-10---
E||--5--5-5-5-5--5--5-5-5-5---8---8--8--8--8---8---8--8--8--8----


     ------------------------------------------------|
     ------------------------------------------------|
     ------------------------------------------------|
     ------------------------------------------------|
     ---8--8-8-8-8--8--8-8-8-8--8---7---8---7--------|
     ---6--6-6-6-6--6--6-6-6-6--6---5---6---5--------|



Riff 5 (end)

E||-------------------------------------------------------------|
B||-------------------------------------------------------------|
G||--4--4-4---/6--2--1---2--------4--4-4---/6--2--1-------------|
D||--4--4-4--------------4--------4--4-4-------------4---6------|
A||--2--2-2-----------------------2--2-2-------------2---6------|
E||--------------------------------------------------2---4------|
Comments