Marduk - Echoes From The Past Chords & Tabs

 

Echoes From The Past Chords & Tabs

Marduk Chords & Tabs

Version: 1 Type: Tab 0 ratings
1 star 2 stars 3 stars 4 stars 5 stars
comments

Echoes From The Past Tab

Marduk: Echos from the Past

First riff which alternates with the 2:nd all through 
e--------------------------------------------------|
b--------------------------------------------------|
g--------------------------------------------------|
d-7--7--7-----------3--3--3-3--5-5-----------------|
a-5--5--5-7--7--7-7-1--1--1-1--3-3-----------------|
e---------5--5--5-5--------------------------------|

Second riff
e--------------------------------------------------|
b--------------------------------------------------|
g--------------------------------------------------|
d--12--12--12--------------10-10-1010-10-10--------|
a--10--10--10-12--12--12-10-6--6--6-6--8-8---------|
e-------------10--10--10-10------------------------|
[ Tab from: http://www.guitartabs.cc/tabs/m/marduk/echoes_from_the_past_tab.html ]
Guitar line which comes above the riffs. Just follow
e--------------------------------------------------|
b--------------------------------------------------|
g--------------------------------------------------|
d-0---0---0-0-2-3-2---5-3-2-3---3------3---2-3-2---|
a-------------------3------------------------------|
e--------------------------------------------------|

2:nd line...
e--------------------------------------------------|
b--------------------------------------------------|
g--------------------------------------------------|
d-5---5---5-5-7-8-7---10-8-7-8---8------8---7-8-7--|
a-------------------8------------------------------|
e--------------------------------------------------|


This is the third guitarline. Comes in the middle...
e----------------------------------------------------|
b----------------------------------------------------|
g-7---7---7-7-9-10-9----12-10-9-10---10---10---9-10-9|
d--------------------10------------------------------|
a----------------------------------------------------|
e----------------------------------------------------|
Comments