Marduk - Christraping Blackmetal Chords & Tabs

 

Christraping Blackmetal Chords & Tabs

Marduk Chords & Tabs

Version: 2 Type: Tab 0 ratings
1 star 2 stars 3 stars 4 stars 5 stars
comments

Christraping Blackmetal Tab

   
/---------------------------------------------------------------------------/
/    The following is the author's own interpretation of the song, to be    /
/                     used for private use and studying                     /
/---------------------------------------------------------------------------/

                     MARDUK - CHRISTRAPING BLACK METAL
                   From the Album PANZER DIVISION MARDUK
                      Copyright 1999 OSMOSE PRODUCTIONS

                         Version 666 - JANUARY 2005

Transcribed by: Death8699

For Questions, Comments, Newest Version, or Corrections contact
 Death8699: at MethylinInfo@aol.com

Check Out Death Warp, With More Transcriptions On It:
 http://www.deathwarp.com/

..  - palm mute          /  - slide up to
 \  - slide down to      ~  - vibrato
 h  - hammer on          b  - bend
 p  - pull off            Suffixes for bend
                          ph - pinch harmonic
                           f - full bend    h - half bend
*  - see comment           r - release      t - tap bend
X  - percussion mute       ~ - vibrato bend
@  - slight palm mute     () - ghost note, sustained note

Tune Gtr to E (Standard Tuning)

--CHRISTRAPING BLACK METAL--

 |Riff A|
||-----------------------------------------------------------------|
||-----------------------------------------------------------------|
||:----------------------------------------------------------------| 
||:----------------------------------------------------------------|
||---------4-4-4-4-6-6-6-6---------6-6-6-6-7-7-7-7---------7-7-7-7-|
||-0-0-0-0-----------------0-0-0-0-----------------0-0-0-0---------|
||                                                                 |
||-----------------------------------------------------------------|
||-----------------------------------------------------------------|
||-----------------------------------------------------------------| 
||-----------------------------------------------------------------|
||-9-9-9-9-7-7-7-7-6-6-6-6-4-4-4-4-6-6-6-6-7-7-7-7-----------------|
||-----------------------------------------------------------------|

 |-----------------------------------------------------------------||
 |-----------------------------------------------------------------||
 |-----------------------------------------------------------------|| 
 |-----------------------------------------------------------------||
 |---------4-4-4-4-6-6-6-6---------6-6-6-6-7-7-7-7---------7-7-7-7-||
 |-0-0-0-0-----------------0-0-0-0-----------------0-0-0-0---------||
 |                                                                 ||
 |-----------------------------------------------------------------||
 |-----------------------------------------------------------------||
 |----------------------------------------------------------------:||
 |----------------------------------------------------------------:||
 |-9-9-9-9-7-7-7-7-6-6-6-6-4-4-4-4-3-3-3-3-------------------------||
 |-----------------------------------------5-5-5-5-----------------||


Play Riff A a total of one time.


 |Riff A.1|
||-----------------------------------------------------------------|
||-----------------------------------------------------------------|
||:----------------------------------------------------------------| 
||:--------6-6-6-6-8-8-8-8---------8-8-8-8-9-9-9-9---------9-9-9-9-|
||---------4-4-4-4-6-6-6-6---------6-6-6-6-7-7-7-7---------7-7-7-7-|
||-0-0-0-0-----------------0-0-0-0-----------------0-0-0-0---------|
||                                                                 |
||-----------------------------------------------------------------|
||-----------------------------------------------------------------|
||-----------------------------------------------------------------| 
||-111111119-9-9-9-8-8-8-8-6-6-6-6-8-8-8-8-9-9-9-9-----------------|
||-9-9-9-9-7-7-7-7-6-6-6-6-4-4-4-4-6-6-6-6-7-7-7-7-----------------|
||-----------------------------------------------------------------|

 |-----------------------------------------------------------------||
 |-----------------------------------------------------------------||
 |-----------------------------------------------------------------|| 
 |---------6-6-6-6-8-8-8-8---------8-8-8-8-9-9-9-9---------9-9-9-9-||
 |---------4-4-4-4-6-6-6-6---------6-6-6-6-7-7-7-7---------7-7-7-7-||
 |-0-0-0-0-----------------0-0-0-0-----------------0-0-0-0---------||
 |                                                                 ||
 |-----------------------------------------------------------------||
 |-----------------------------------------------------------------||
 |----------------------------------------------------------------:||
 |-111111119-9-9-9-8-8-8-8-6-6-6-6-5-5-5-5-2-2-2-2----------------:||
 |-9-9-9-9-7-7-7-7-6-6-6-6-4-4-4-4-3-3-3-3-0-0-0-0-----------------||
 |-----------------------------------------------------------------||


Play Riff A.1 a total of one time.

[ Tab from: http://www.guitartabs.cc/tabs/m/marduk/christraping_blackmetal_tab_ver_2.html ]
 |Riff B|
||-------------------------------------------------------------------------||
||-------------------------------------------------------------------------||
||:-----------------------------------------------------------------------:||
||:----------------3-3-3-3-2-2-2-2----------------------------------------:||
||-4-4-4-4-4-4-4-4-----------------4-4-4-4-5-5-5-5-4-4-4-4-2-2-2-2-4-4-4-4-||
||-------------------------------------------------------------------------||


Play Riff B a total of 8 times.


 |Riff C|
||------------------------------------------------------------------||
||------------------------------------------------------------------||
||:----------------8-8-8-8-9-9-9-9-8-8-8-8-------------------------:||
||:--------9-9-9-9-------------------------9-9-9-9-8-8-8-8-9-9-9-9-:||
||-7-7-7-7----------------------------------------------------------||
||------------------------------------------------------------------||


Play Riff C a total of 4 times.


 |Riff D|
||-------------------------------------------------------------------||
||-------------------------------------------------------------------||
||:------------------------------------------------------------------||
||:-2-2-2-2--2/8-8-8-8-2-2-2-2--2/9-9-9-9-2-2-2-2--2/8-8-8-8-9-9-9-9-||
||--2-2-2-2--2/6-6-6-6-2-2-2-2--2/7-7-7-7-2-2-2-2--2/6-6-6-6-7-7-7-7-||
||--0-0-0-0--0---------0-0-0-0--0---------0-0-0-0--0-----------------||
||                                                                   ||
||-------------------------------------------------------------------||
||-------------------------------------------------------------------||
||------------------------------------------------------------------:||
||--6-6-6-6-9-9-9-9-------------------------------------------------:||
||--4-4-4-4-7-7-7-7--------------------------------------------------||
||-------------------------------------------------------------------||


Play Riff D a total of 2 times.


|Riff E|
|---------------------------------------------------------|
|---------------------------------------------------------|
|---------------------------------------------------------|
|-9-9-9-9-9-9-9-9--2/8-8-8-8--9-9-9-9-9-9-9-9--2/9-9-9-9--|
|-7-7-7-7-7-7-7-7--2/6-6-6-6--7-7-7-7-7-7-7-7--2/7-7-7-7--|
|-0-0-0-0-0-0-0-0--0----------0-0-0-0-0-0-0-0--0----------|
|                                                         |
|---------------------------------------------------------|
|---------------------------------------------------------|
|---------------------------------------------------------|
|-9-9-9-9-9-9-9-9--2/8-8-8-8--9-9-9-9-6-6-6-6-9-9-9-9-----|
|-7-7-7-7-7-7-7-7--2/6-6-6-6--7-7-7-7-4-4-4-4-7-7-7-7-----|
|-0-0-0-0-0-0-0-0--0--------------------------------------|


Play Riff E a total of 2 times.


|Riff F|
|--------------------------------------------------------------------------|
|--------------------------------------------------------------------------|
|--------------------------------------------------------------------------|
|-----------------6-6-6-6-9-9-9-9-6-6-6-6----------------------------------|
|-4-4-4-4-4-4-4-4-------------------------4-4-4-4-5-5-5-5-7-7-7-7-8-8-8-8--|
|--------------------------------------------------------------------------|
|                                                                          |
|--------------------------------------------------------------------------|
|--------------------------------------------------------------------------|
|--------------------------------------------------------------------------|
|-----------------6-6-6-6-9-9-9-9-6-6-6-6----------------------------------|
|-4-4-4-4-4-4-4-4-------------------------10101010-9-9-9-9-7-7-7-7-6-6-6-6-|
|--------------------------------------------------------------------------|


Play Riff F a total of 2 times.


|Riff G|
|----------------------------------------------------------------------------|
|----------------------------------------------------------------------------|
|----------------------------------------------------------------------------|
|-----------------8-8-8-8-11111111-8-8-8-8-----------------------------------|
|-6-6-6-6-6-6-6-6--------------------------6-6-6-6-7-7-7-7-9-9-9-9-10101010--|
|----------------------------------------------------------------------------|
|                                                                            |
|----------------------------------------------------------------------------|
|----------------------------------------------------------------------------|
|----------------------------------------------------------------------------|
|-----------------8-8-8-8-11111111-8-8-8-8-----------------------------------|
|-6-6-6-6-6-6-6-6--------------------------/1212121211111111-9-9-9-9-8-8-8-8-|
|----------------------------------------------------------------------------|


Play Riff G a total of 2 times.


Repeat Riff D a total of 2 times.
Repeat Riff E a total of 2 times.
Repeat Riff A a total of one time.
Repeat Riff B a total of 8 times.
Repeat Riff C a total of 4 times.
Repeat Riff D a total of 2 times.
Repeat Riff E a total of 2 times.
Repeat Riff F a total of 2 times.
Repeat Riff G a total of 2 times.
Repeat Riff D a total of 2 times.
Repeat Riff E a total of 2 times.
End on E5 Chord!

Check Out Death Warp, With More Transcriptions On It:
 http://www.deathwarp.com/
Comments