Marduk - Autumnal Reaper Chords & Tabs

 

Autumnal Reaper Chords & Tabs

Marduk Chords & Tabs

Version: 1 Type: Tab 0 ratings
1 star 2 stars 3 stars 4 stars 5 stars
comments

Autumnal Reaper Tab

Downloaded from Apostasia web'zine.

http://www.come.to/metal-storm

Interviews, reviews, links, tabs etc.


 MARDUK: AUTUMNAL REAPER (version 1.0 October '97)

 transcribed by: Philipp Wutsch (GER)
                 Gernot Eller (AUT) 
                                    

 < >...triplet

	  RIFF1
	||--------||
	||--------||
	||--------||
	||4--45-2-||
	||-2------||
	||--------||

	  RIFF2
	||----------------||
	||----------------||
	||---2------------||
	||245---542-40----||
	||----------------||
	||----------------||

	  RIFF3
	||--------||
	||--------||
	||--------||
	||-7------||
	||0-78-5--||
	||--------||
[ Tab from: http://www.guitartabs.cc/tabs/m/marduk/autumnal_reaper_tab.html ]
	  RIFF4
	||--------------------------------||
	||--------------------------------||
	||--------------------------------||
	||--------------------------------||
	||6---7---6---7---3---4---3---434-||
	||--------------------------------||
	                              < >

	  RIFF5
	||------------------------||
	||------------------------||
	||------------------------||
	||1-24-21-----1-24-54-----||
	||------------------------||
	||------------------------||


	  RIFF6A
	||------------------------||
	||------------------------||
	||------------------------||
	||------------------------||
	||0-24-64-----0-24-63-----||
	||------------------------||

	  RIFF6B
	||------------------------||
	||------------------------||
	||------------------------||
	||------------------------||
	||0-24-64-----0-24-6---05-||
	||------------------------||


	  RIFF6
	||----||
	||----||
	||-8--||
	||-8--||
	||-6--||
	||----||


 Song-Structure:
 ŻŻŻŻŻŻŻŻŻŻŻŻŻŻŻ
 Riff1
 Riff2
 Riff3
 Riff4
 Riff3
 Riff2
 Riff1
 Riff4
 Riff5A
 Riff5B
 Riff4
 Riff6
Comments