Marcy Playground - St Joe Rides The Schoolbus Chords & Tabs

 

St Joe Rides The Schoolbus Chords & Tabs

Marcy Playground Chords & Tabs

Version: 1 Type: Tab 0 ratings
1 star 2 stars 3 stars 4 stars 5 stars
comments

St Joe Rides The Schoolbus Tab

-----------------------------------
-----------------------------------
-----------------------------------
------------1-1-1-1----------------
---5-5-5-5--3-3-3-3--3-3-3-3--3-3-4
---3-3-3-3-----------1-1-1-1--1-1-2




*End*

------------
------------
------------
------------
--3----3-3-3
-1-1-1--1--1
[ Tab from: http://www.guitartabs.cc/tabs/m/marcy_playground/st_joe_rides_the_schoolbus_tab.html ]
Comments