Marcy Playground - St Joe On The School Bus Chords & Tabs

 

St Joe On The School Bus Chords & Tabs

Marcy Playground Chords & Tabs

Version: 1 Type: Tab 0 ratings
1 star 2 stars 3 stars 4 stars 5 stars
comments

St Joe On The School Bus Tab

A little '90s reminiscence 

If you want, you can have a 2nd guitarist playing, but that's not
the way Marcy Playground plays it.

Intro/Verse

Guitar #1
|----------------------------------------------------------------|
|----------------------------------------------------------------|
|----------------------------------------------------------------|
|-4---4---4---4---7---7---7---7---2---2---2---2---2---2-2-2---3--|
|-4---4---4---4---7---7---7---7---2---2---2---2---2---2-2-2---3--|
|-2---2---2---2---5---5---5---5---0---0---0---0---0---0-0-0---1--|

Guitar #2
|----------------------------------------------------------------|
|----------------------------------------------------------------|
|----------------------------------------------------------------|
|-4---4---4---4---7---7---7---7---2---2---2---2---2---2-2-2---3--|
|-4---4---4---4---7---7---7---7---2---2---2---2---2---2-2-2---3--|
|-2---2---2---2---5---5---5---5---0---0---0---0---0---0-0-0---1--|

Bridge
[ Tab from: http://www.guitartabs.cc/tabs/m/marcy_playground/st_joe_on_the_school_bus_tab.html ]
Guitar #1
|-------------------------|
|-------------------------|
|-------------------------|
|-------------------------|
|-------2---------2-----2-|
|-0--0-----0---0-----0----|

Guitar #2
|-------------------------|
|-------------------------|
|-------------------------|
|-------------------------|
|-2--2--2--2--2--2--2--2--|
|-0--0--0--0--0--0--0--0--|

Chorus

Guitar#1
|------------------------------------------------|
|------------------------------------------------|
|------------------------------------------------|
|------------------------------------------------|
|-------0-----------4-----------6--------6-----6-|
|-2--2-----2--5--5-----5--7--7-----7--7-----7----|

Guitar #2
|-------------------------------------------------|
|-------------------------------------------------|
|-------------------------------------------------|
|-------------------------------------------------|
|-0--0--0--0--4--4--4--4--6--6--6--6--0--0--0--1--|
|-2--2--2--2--5--5--5--5--7--7--7--7--2--2--2--3--|
Comments