Marcy Playground - Sex And Candy Chords & Tabs

 

Sex And Candy Chords & Tabs

Marcy Playground Chords & Tabs

Version: 3 Type: Tab 0 ratings
1 star 2 stars 3 stars 4 stars 5 stars
comments

Sex And Candy Tab

Song: Sex and Candy (tab version)
Tabbed by: Dominik Zalewski
Standard Tuning (EADGBE)

Intro 
[_____play 3 times_______]
|------------------------|---------------------------|
|------------------------|---------------------------|
|------------------------|---------------------------|
|----- 9---9-9-9-9--9-9--|--12-12-12-12-11-11-11-11--|
|------9---9-9-9-9--9-9--|--12-12-12-12-11-11-11-11--|
|--7---7---7-7-7-7--7-7--|--10-10-10-10-9--9--9--9---|

chorus x3
[ Tab from: http://www.guitartabs.cc/tabs/m/marcy_playground/sex_and_candy_tab_ver_3.html ]
|--------------------------------------|
|--------------------------------------|
|--------------------------------------|
|--7h9p7----------9--9-5-5-5-5-7--7-7--|
|--------9-7h9----9--9-5-5-5-5-7--7-7--|
|--------------7--7--7-3-3-3-3-5--5-5--|

After Chorus(play 2 times)

|-------------------------------|
|-------------------------------|
|--7--7-7-----------------------|
|--7--7-7--7-7-7--9-9-9--5-5-5--|
|--5--5-5--7-7-7--9-9-9--5-5-5--|
|----------5-5-5--7-7-7--3-3-3--|

|-------------------|
|-------------------|
|-------------------|
|--4-4-4-4-4-4-4-4--|
|--4-4-4-4-4-4-4-4--|
|--2-2-2-2-2-2-2-2--|

End Song on
|-----|
|-----|
|--7--|
|--7--|
|--5--|
|-----|
Comments