Marcy Playground - Sex And Candy Chords & Tabs

 

Sex And Candy Chords & Tabs

Marcy Playground Chords & Tabs

Version: 1 Type: Tab 3 ratings
1 star 2 stars 3 stars 4 stars 5 stars
comments

Sex And Candy Tab

   
Sex And Candy
B         G         F#       A        
e ----x---- ----x---- ----x---- ----x----  
B ----x---- ----x---- ----x---- ----x----  
G ----4---- ----x---- ----x---- ----6----  
D ----4---- ----5---- ----4---- ----7----  
A ----2---- ----5---- ----4---- ----7----  
E ----x---- ----3---- ----2---- ----5----

      D         A*        Bm        G*
e ----2---- ----0---- ----2---- ----3----  
B ----3---- ----2---- ----3---- ----3----  
G ----2---- ----2---- ----4---- ----4----  
D ----0---- ----2---- ----4---- ----5----  
A ----0---- ----0---- ----2---- ----5----  
E ----x---- ----x---- ----2---- ----3----

riff 1
                               
e -----------------------------x----
B -----------------------------x----
G -----2h4--2------------------4---- 
D --------------2h4--2p0-------4---- 
A -------------------------2---2----
E -----------------------------x----


   B             G           F#
Hangin' round, downtown by myself and I had
   B                      G            F# 
So much time to sit and think about myself
               B          G            F#
And there she was, like double cherry pie
                B          G       F#  
Yeah there she was, like disco superfly

[ Tab from: http://www.guitartabs.cc/tabs/m/marcy_playground/sex_and_candy_tab.html ]
(---riff 1-----)  B    G       A
I smell sex and candy here, um-hmmm
(---riff 1-----)    B       G       A 
Who's that lounging in my chair, um-hmmm?
(---riff 1-----)   B         G             A 
Who's that casting devious stares in my direction?
                        D      A*  Bm 
Mama this surely is a dream.  Yeah.  Yeah mama this 
  G           D       A*    Bm  G  F#
Surely is a dream.  Diggit.  


   B             G           F# 
Hangin' round, downtown by myself and I had
 B                            G               F#
Too much caffeine and I was thinkin' 'bout myself
               B        G              F# 
And there she was, in platform double suede
                B          G       F#
Yeah there she was, like disco lemonade.


(---riff 1-----) B     G       A
I smell sex and candy here, um-hmmm
(---riff 1-----)    B       G       A 
Who's that lounging in my chair, um-hmmm?
(---riff 1-----)   B         G             A 
Who's that casting devious stares in my direction
                        D      A*   Bm 
Mama this surely is a dream.  Yeah.  Yeah mama this 
  G*          D       A*    Bm        
surely is a dream.  Diggit.  Yeah mama this 
  G*          D     A*  Bm  G  F#
Surely is a dream. Yeah 


now repeat last section but change last line to:


  G*          D      A*  Bm               G*          D
surely is a dream. Yeah.  Yeah mama this must be my dream.
Comments