Marcy Playground - Opium Chords & Tabs

 

Opium Chords & Tabs

Marcy Playground Chords & Tabs

Version: 1 Type: Tab 0 ratings
1 star 2 stars 3 stars 4 stars 5 stars
comments

Opium Tab

   
Opium
D         F#        Em        Bm        A         G         E

e ----2---- --------- ----0---- ----2---- ----0---- ----3---- ----0---- 
B ----3---- --------- ----0---- ----3---- ----2---- ----3---- ----0---- 
G ----2---- --------- ----0---- ----4---- ----2---- ----0---- ----1----
D ----0---- ----0---- ----2---- ----4---- ----2---- ----0---- ----2---- 
A --------- ----0---- ----2---- ----2---- ----0---- ----2---- ----2----
E --------- ----2---- ----0---- --------- --------- ----3---- ----0----



     D5        A5         E5        B5        G5
e --------- ---------  --------- --------- --------- 
B --------- ---------  --------- --------- --------- 
G ----7---- ----6----  --------- ----4---- --------- 
D ----7---- ----7----  ----2---- ----4---- ----5---- 
A ----5---- ----7----  ----2---- ----2---- ----5---- 
E --------- ----5----  ----0---- --------- ----3---- 

Intro:

Bm  A  G  D  (2x)
[ Tab from: http://www.guitartabs.cc/tabs/m/marcy_playground/opium_tab.html ]
Bm         A
Blue, like water
G     F#  Em        D           A     
Blue like heaven is all of the time
Bm        A
I'm all right
G    F#   Em         D           A
I'm just gagging on all the all right

E       Bm        D             A
I'm so happy, so happy, whoa-oh-oh
E       Bm            D             A
I'm in heaven, yeah heaven, whoa-oh-oh
G   F#   Em               D         A   D
Oh, the season's come for oh-uh-oh-oh-pium.

(jistorted guitar)

D5           A5 
  Mah-ah-ah-ahm
(4x)

E5      B5          D5               A5
I'm so happy, yeah happy, whoa-oh-oh-oh 
E5      B5          D5                 A5
I'm in heaven, yeah heaven, whoa-oh-oh-oh 
G5  F#   E5                D5       A5   D  
Oh, the seizures come from oh-uh-oh-oh-pium
Comments