Marcy Playground - Its Saturday Chords & Tabs

 

Its Saturday Chords & Tabs

Marcy Playground Chords & Tabs

Version: 1 Type: Tab 0 ratings
1 star 2 stars 3 stars 4 stars 5 stars
comments

Its Saturday Tab

Artist: Marcy Playground
Song: Its Saturday
Tabber: Jeremy Beavin (mtdewboy284@yahoo.com)

alright everyone, this is a sweet song, and its pretty easy to play

Intro
E|----------------------------------------------------------
B|-------------------------------------------------------  
G|----------------------------------------------------------
D|--7---74-4442----7-7-4-444---2(let ring)--------------
A|--7---74-4442----7-7-4-4442---------------------------
E|--5---52-2220----5-5-2-2220---------------------------

Verse Part 1  (3x)         No distortion

E|--------------------------------------------------------
B|--------------------------------------------------------
G|---------------666-4444---------------------------------
D|-666444-------6664444---------------------------------
A|-666444-------4442222---------------------------------
E|-444-222--0---------------------------------------------
[ Tab from: http://www.guitartabs.cc/tabs/m/marcy_playground/its_saturday_tab.html ]
Verse break (1x)       Distortion
E|----------------------------------------------------------
B|----------------------------------------------------------
G|----------------------------------------------------------
D|-7-74-4-4-2-2-2-2----------------------------------------
A|-7-74-4-4-2-2-2-2----------------------------------------
E|-5-52-2-2-0-0-0-0----------------------------------------

Verse part 2 (p.m.)

E|-------------------------------------------------------
B|-------------------------------------------------------
G|-------------------------------------------------------
D|-77744422222777---44422222----(2x)-----------------
A|-77744422222777---44422222-------------------------
E|-55522200000555---22200000-------------------------

Chorus same as intro

Bridge (2x)

E|----------------------------------------------------------
B|----------------------------------------------------------
G|----------------------------------------------------------
D|---77744442---77744442777-4444-27---------------
A|---77744442---77744442777-4444-27---------------
E|---55522220---55522220555-2222-05---------------
Comments