Marcy Playground - Its Saturday Chords & Tabs

 

Its Saturday Chords & Tabs

Marcy Playground Chords & Tabs

Version: 1 Type: Bass Tab 0 ratings
1 star 2 stars 3 stars 4 stars 5 stars
comments

Its Saturday Bass Tab

It's Saturday
by Marcy Playground
Tabbed by Matt Marchain (DirectR3@aol.com)

Yodeling Riff
G|-------------------------------------------------------------|
D|-------------------------------------------------------------|
A|-------------------------------------------------------------|
E|---5--5-2-2--2--5--5-2-2--2--5--5-2-2--2-0-0-0-0-0-0-0-0-----|
[ Tab from: http://www.guitartabs.cc/tabs/m/marcy_playground/its_saturday_btab.html ]
Quiet
G|----------------------------------------|
D|----------------------------------------|
A|-----6-6-6----4-4-4-4-------------------|
E|-----------------------4-4-4----2-2-2-2-|

Chorus
G|--------------------------------|-----------------------------|
D|--------------------------------|-----------------------------|
A|--------------------------------|------------4-2--------------|
E|--5-5-5-5-2-2-2-2-0-0-0-0-0-0---|----2---4-5-----4-0-5--------|

back to Yodeling

then Quiet part

then Chorus again

For the random ranting part, just do the Chorus.
Outro  (probably wrong)
G|-------------------|
D|------------2------|
A|--------2-4---0-0--|
E|--2-4-5------------|

Comments