Marcy Playground - Gone Crazy Chords & Tabs

 

Gone Crazy Chords & Tabs

Marcy Playground Chords & Tabs

Version: 1 Type: Tab 0 ratings
1 star 2 stars 3 stars 4 stars 5 stars
comments

Gone Crazy Tab

   
Gone Crazy
      E         A         B

e --------- --------- ---------  
B --------- --------- ---------  
G ----14--- ----6---- ----8---- 
D ----13--- ----7---- ----9----  
A ----11--- ----7---- ----9----  
E ----0---- ----5---- ----7---- 

      A*       G#        F#        E*

e --------- --------- --------- --------- 
B --------- --------- --------- --------- 
G ----6---- ----4---- ----2---- ----1----
D ----7---- ----6---- ----4---- ----2---- 
A --------- --------- --------- --------- 
E --------- --------- --------- ---------
riff 1
                                       
e ---------------------------------------------------
B --9-9-7-9---10-10-7-7---10-10-7-7-10--5-7-9---4--5-
G ---------------------------------------------------
D --9-9-7-9---11-11-7-7---11-11-7-7-11--6-7-9--4--6--
A ---------------------------------------------------
E ---------------------------------------------------
                                       |____________|
                                              |
                                             riff 2
riff 3

e ------------------------------------------0--------
B --7/9--9--7--0--3/5--5-3--0--2h3--3-3-----0--------
G ------------------------------------------2--------
D --7/9-9----7----4/6-6---4----2---2---2p0--2--------
A ------------------------------------------0--------
E ---------------------------------------------------

riff 4 (sounds like)

e ------------------------
B ------------------------
G ----1-------------------
D --2---2p0--1------------
A -------------2-0-200----
E ------------------------


Intro:

(riff 1)

(play riff 1 over chords)

Come back and be

Come back for free

Come back and stay child

Have you gone crazy?

(riff 3)
(riff 4)

[ Tab from: http://www.guitartabs.cc/tabs/m/marcy_playground/gone_crazy_tab.html ]
 E      A      B   E   
Molly, it must be fine
  A      B    E    A     B   E         
It seems so dreamy to be sublime
          A       B    E
An' Molly has gone to Spain
 A       B      E    A        B   E 
Has gone with Venus to watch the rain

 B                                      E
Seems that's not the place where you belong
    B                                      E
It seems that's not the place where you belong
 A*    G#    F#  E*  A*   G#    F#  E*
When there's no sun and there's no moon
A*   G#     F#  E*      A*
And there's no stars, child
(-----riff 2------)
Have you gone crazy?

(riff 3)2x

(play riff 1 over chords)

Come back and be

Come back for free

Come back and stay child

Have you gone crazy?

(riff 3)
(riff 4)


 E    A       B   E
Molly it must be fine
A        B    E    A      B  E     
It seems so dreamy to be sublime
           A       B E
And Molly the whipporwhill
 A        B   E         A     B     E
Has gone to space boy, she is there still


 A*    G#    F#  E*  A*   G#    F#  E*
When there's no sun and there's no moon
A*   G#     F#  E*      A*
And there's no stars, child
(-----riff 2------)
Have you gone crazy?

(riff 3)2x
(riff 4) (open E chord)
Comments