Marcus Miller - Run For Chords & Tabs

 

Run For Chords & Tabs

Marcus Miller Chords & Tabs

Version: 1 Type: Bass Tab

Run For Bass Tab

Artist: Marcus Miller
Song: Run For Cover
Tabbed By: mikethecoug

Intro
G|-------14p12h14~-|
D|---x-------------|
A|-----------------|
E|-x---------------|
   T P   P 

G|---6-7----------------------------------------|
D|----------------5-----------5-5-----2---------|
A|-------x-5h7-x------5-5h7-x-----2h4-----x-5h7-|
E|-0------------------------------------3-------|
   T P P T T   T  P   T    T  P P T   P T P P

[ Tab from: http://www.guitartabs.cc/tabs/m/marcus_miller/run_for_btab.html ]
G|---6-7------------------------------5/-12-12-11-11-9-9-7-7-|
D|----------------5-----x---x----5-5-------------------------|
A|-------x-5h7-x---------------------------------------------|
E|-0------------------x---x---x------------------------------|
   T P P T T   T  P   T P T P T  P P  (double thump this part)

Verse (when all the other instruments come in..)
G|-----------------9-7-------9-|
D|---------------------9p7-x---|
A|--------7p5-5h7--------------|
E|-0-00-x----------------------|
   T TT T P   P    P P T   T P
 
- I am gonna try and figure out the rest, this is a good tab for me,
  and of course it's not as good as the real thing, but i think thats
  tough for even the best of tabbers to figure out. Marcus adds in
  countless numbers of muted notes all of the time so listen out for them.


- Mike