Marcus Miller - Power Chords & Tabs

 

Power Chords & Tabs

Marcus Miller Chords & Tabs

Version: 2 Type: Bass Tab

Power Bass Tab

Band: Marcus Miller
Song: Power
Album: M2

So, after searching the internet for the tab, including this website, i have found
that the tabs for this is wrong. All of the tabs i have found start with a chord
using 3 strings. CORRECTION, i have searched google video, and have a video of
marcus playing the song, he does not play that chord.

I realy like this song, its like a guitarist playing bass, and thats what i like.
Some day, i want to play like him! Any who...

You may think that this song is slapped, but it is not. I was tricked, thinking
that this song is slapped also, but it is not. The famous "Wooten" technique is
what marcus uses here. Basicaly, its using your thumb as you would a guitar pick.

If you need to know how to use technique, go to the following links and watch the video...

http://video.google.com/videoplay?docid=2878027836181592406&q=thumb
this one is some guy playing, he evently plays this song

http://video.google.com/videoplay?docid=-4449818176212403705&q=wooten
this is wooten himself giving a lesson on thumbing

anyways, enough blabber, heres the tab!!

Tuning: EADG

Legend
 x = Mute
 h = Hammer On
 p = Pull off
 / = Slide down to

Main Riff 0:03
|--7-------------------------x--------------|
|--9-7h9-9p7------9---x--x7h9-9p7x9-----777-|
|-----------97----------7-----------7h9-----|
|-------------97x---xx----------------------|

|--7-------------------------x------------|
|--9-7h9-9p7------9---x--x7h9-9p7x9-------|
|-----------97----------7-----------------|
|-------------97x---xx--------------23-34-|
[ Tab from: http://www.guitartabs.cc/tabs/m/marcus_miller/power_btab_ver_2.html ]
|--7-------------------------x---------------|
|--9-7h9-9p7------9---x--x7h9-9p7x9-----7777-|
|-----------97----------7-----------7h9------|
|-------------97x---xx-----------------------|

Other main riff 0:23
|-----7-9-9/11--10-9-7---7-79--|
|-7h9-----------------7h9------|
|------------------------------|
|------------------------------|

|-----7-9-9/11-9-7--10-9-7-----7h8------|
|-7h9----------------------7h9-----9-7--|
|---------------------------------------|
|---------------------------------------|

|-----7-9-9/11-9-7-7/9-7-6-6h7-6h7p6---6-4--|
|-7h9-------------------------------7\4-----|
|-------------------------------------------|
|-------------------------------------------|

|-------------------------x--------|
|-7h9-9p7------9---x--x7h9-9p7x9---|
|--------97----------7-------------|
|----------97x---xx----------------|

Again at 0:45
|-----7-9-9/11--10-9-7---7-79--|
|-7h9-----------------7h9------|
|------------------------------|
|------------------------------|

|-----7-9-9/11-9-7--10-9-7-----7h8------|
|-7h9----------------------7h9-----9-7--|
|---------------------------------------|
|---------------------------------------|

|-----7-9-9/11-9-7-7/9-7-6-6h7-6h7p6---6-4--|
|-7h9-------------------------------7\4-----|
|-------------------------------------------|
|-------------------------------------------|

|-------------------------x--------|
|-7h9-9p7------9---x--x7h9-9p7x9---|
|--------97----------7-------------|
|----------97x---xx----------------|



Thats all i have for now, im going to do the other riff soon, but the stuff i
have here is preety much repeated through out the whole song. Hope this helps!

Please Rate!