Marcera - Victim Chords & Tabs

 

Victim Chords & Tabs

Marcera Chords & Tabs

Version: 1 Type: Tab 0 ratings
1 star 2 stars 3 stars 4 stars 5 stars
comments

Victim Tab

   
  
 Marcera
 "Victim"

Written by Marcera
    Tab by Themanwiththeaxe.

This is always a fun one to play. Not as many Five-six fret stretches. 

 Drop D tuning
 
-D-
-A-
-D-
-G-
-B-
-E-


  (guitar 1-intro)
|-----------------------------------------|
|-----------------------------------------|o
|----10--9--10-12-10-9-7-7-5-5-5-5-3-3-2--|
|-0-0---0--0--0--0--0-0-0-0-0-0-0-0-0-0-0-|
|-----------------------------------------|o
|-----------------------------------------|

  (guitar 2)
|-------|
|---3---|
|---2---|
|---0---|
|---0---|
|---0---|


   (guitar 2)   Riff 1
|--------------------------------------------------------|
|--------------------------------------------------------|
|----------------------------------------------0---------|
|--7--7--7--7---10--10--10--10---5--5--5--5---3-3--2-2---|
|-5--5--5--5---8---8---8---8----3--3--3--3---1----0-3----|
|--------------------------------------------------------|



  Riff 2
                                                              repeat 4x    
|--------------------------------------------------------------------------|
|-------------------------------------------------------------------------o|
|-----10-10-9-9-10-10-----12-12-10-10-9-9-----5-5-5-5-4-4-----4-4-4-4-2-2--|
|------0--0-0-0--0--0------0--0--0--0-0-0-----0-0-0-0-0-0-----0-0-0-0-0-0--|
|-0-0-----------------0-0-----------------0-0-------------0-0-------------o|
|-0-0-----------------0-0-----------------0-0-------------0-0--------------|

 (verse)
  Riff 1

[ Tab from: http://www.guitartabs.cc/tabs/m/marcera/victim_tab.html ]
  chorus intro riff
|-----------------------------|
|-----------------------------|
|-----------------------------|
|-----------------------------|
|-0-0---0-0---0-0---0-0---5h--|
|-0-0---0-0---0-0---0-0---5h--|


 (chorus)
  riff2


 disastrous.....
     riff 3
|------------------------------------------------------|
|------------------------------------------------------|
|------------------------------------------------------|
|-5----/14-14-14--14--*-*-15-15-15\---5--/p--0--3------|
|-3----/12-12-12--12--*-*-13-13-13\---3--/p--0--1------|
|-3----/12-12-12--12--*-*-13-13-13\---3--/p--0--1------|
  32x                                 32x 
  
(verse 2)
 riff 1

Chorus intro riff

(chorus)
 riff 2

 riff 3
 
 
 After the whole disastrous riff the same riff is played aver a few mor times with
different variations of palm muting and preset changing. but it's basicly the same
chords.

this is the little chill out part I guess. 


|----------------------------------------------|
|----------------------------------------------|o
|----------------------------------------------|
|---5--7\----5--7\-----10--8\--------13------8-|
|--3--------3---------8------------11------6---|o
|-3--------3---------8----------/11------/6----|
                                      repeat this 3 times



|--------|
|--------|
|--------|
|--------|
|--0--0--|
|--0--0--|



That's pretty much it. Like I say if you know the song it's pretty much self expanitory.
If you don't you really should listen to it and learn it. I'm sure not very many people
know how to play it so.... be one of the few and the proud. Good luck!
Comments