Marc Broussard - Lonely Night In Georgia Chords & Tabs

 

Lonely Night In Georgia Chords & Tabs

Marc Broussard Chords & Tabs

Version: 1 Type: Tab

Lonely Night In Georgia Tab

   
Marc Broussard
Lonely Night in Georgia

Capo III (All chords and tab relative to capo)

Intro Riff:
E----------------------------------------------|
B----------------------------------------------|
G-----------------7----------------------------|
D--------5-7-7s9----7h9p7-------And into Verse-|
A---5-7----------------------------------------|
E---------------------------(3) ---------------|

Verse:
e--3---0----3----3------------|
B--3---0h1--3----3------------|
G--0---2----0----0------------|
D--0---2----2----0------------|
A--2---0----3----2------------|
E--3-------------3------------|

Stoplights turn into skylines And my mind turns to you
Two hundred miles behind Off to this roadside dive
Wondering how this cup of coffee's gonna see me through

PreChorus (this has been our story)

e--2--3--22-2----3----------|
B--3--5--33-3----3----------|
G--2--4--2-2-2----0----------|
D--4--5--4-4-4----2----------|
A--2--3--2-2-2----3----------|
E----------------------------|

But this has been our story, same sad song Ever since the day, the day you came along
[ Tab from: http://www.guitartabs.cc/tabs/m/marc_broussard/lonely_night_in_georgia_tab.html ]
Chorus:
e--3--0------3--3--------------|
B--3--0h1---3--3--------------|
G--0--2------0--0--------------|
D--0--2------2--0--------------|
A--2--0------3--2--------------|
E--3------*-----3--------------|

* this chord (x03213) May work as well but I prefer the Cadd9(x32033)

It's a lonely night in Georgia
And everything I do reminds me of being with you
It's a lonely night, but I'll be alright
'Cause I'm comin' on home, comin' on home to you

Skylines turn into stoplights
Another town, another crowd
When all the peoples gone home
I'm left all alone, with nothin' but you to think about

PreChorus

But this has been our story
I know you've heard it all before
'Cause every time I come home
You know I'm right back out that door

Chorus:

Bridge: F C G D

The warmth of your body though these tall olden pines
The sound of your heartbeat brings your skin to mine
Yours peach kisses ripened by your southern sun smile
F                                       D
Now my senses are heightened with the last hundred miles


[Chorus]