Maranatha - You Are My Hiding Place Chords & Tabs

 

You Are My Hiding Place Chords & Tabs

Maranatha Chords & Tabs

Version: 1 Type: Tab

You Are My Hiding Place Tab

   
This song is very beautiful and spanish sounding. I play it for worships and church all the time.

Intro

e---------------------------------------5-8-10-8-7-5----------|
b----5/10--5-7/8-6-6---5h6p5---5------5--------------6-5------|
g----------------------------7--------------------------------|
d---------------------------------------------------------9/2-|
a-------------------------------------------------------------|
E-------------------------------------------------------------|

Basically after the intro you just play this, well, this is what
I like to play and it sounds good.
there is a piano playing also and that's what
I would replace this with. where I put the / that means
hit the strings to add a little beat.
[ Tab from: http://www.guitartabs.cc/tabs/m/maranatha/you_are_my_hiding_place_tab.html ]
     Am         Dm         G         Dm    Am       F          Dm
e----------/--------1-/--------3-/------1-----0---------------------1-------|
b--------1-/------3---/------3---/----3-----1---------------------3----3----|
g------2---/----2-----/----0-----/------------------2-----------2---------2-|
d----2-----/--0-------/----------/--0-----2-------3----3------0-------------|
a--0-------/----------/----------/--------------3---------3-----------------|
E----------/----------/--3-------/------------1-----------------------------|

          E

e-------------------|
b-------------------|
g-----1---1---1---1-|
d----2---2---2---2--|
a---2---2---2---2---|
E--0---0---0---0----|

Look up You are my hiding place w/ lyrics on youtube
( exactly like that you can even copy and paste
that into the search pod) and pick the one with no
pictures and you will hear in the beggining the
guitar music and how it will be played. PLEASE RATE!! :)