Map - Corn Flakes Chords & Tabs

 

Corn Flakes Chords & Tabs

Map Chords & Tabs

Version: 1 Type: Bass Tab 0 ratings
1 star 2 stars 3 stars 4 stars 5 stars
comments

Corn Flakes Bass Tab

Song: Corn Flakes
Band: M.A.P
Album: Injustice for all
tabbed by: DD (metivier@caramail.com)

Repeat during the whole song
[ Tab from: http://www.guitartabs.cc/tabs/m/map/corn_flakes_btab.html ]
G:----------------------------------------------------------
D:----------------------------------------------------------
A:-----------------55--5---555------------------------------
E:----55--5---555----------------55--5---55---0-0-0-0-------

G:------------------------------------------------------------
D:------------------------------------------------------------
A:----------------55-5---555-------------------7-7-7-7--------
E:---55--5---555-----------------55--5---55-------------------


Comments