Manyths - The Manyths Chords & Tabs

 

The Manyths Chords & Tabs

Manyths Chords & Tabs

Version: 1 Type: Tab 0 ratings
1 star 2 stars 3 stars 4 stars 5 stars
comments

The Manyths Tab

Title: Manyth
Artist: Manyths                                                                          
 . .  = palm mute

/This is the Tab for the 2nd Guitar\

Intro:

e|-----------------------------------------------------------------------|--|
B|-----------------------------------------------------------------------|--|
G|-777777777777777--333333333333333-----------------------------3---5----|--|
D|-777777777777777--333333333333333--333333333333333--55555555--3---5----|--|
A|-5555555555555550-1111111111111110-333333333333333--55555555--1---3----|--| .. .. .. ....   .. .. .. .. ..
E|-----------------------------------1111111111111110-33333333-----------|--|            
                      .. .. .. .. ..   .. .. ..

Verse 1:

e|-----------------------------------------------------------------------|--|
B|-----------------------------------------------------------------------|--|
G|-777777777777777--333333333333333-----------------------------3---5----|--|
D|-777777777777777--333333333333333--333333333333333--55555555--3---5----|--|
A|-5555555555555550-1111111111111110-333333333333333--55555555--1---3----|--| .. .. .. ....   .. .. .. .. ..
E|-----------------------------------1111111111111110-33333333-----------|--|            
                      .. .. .. .. ..   .. .. ..

e|----------------------------------------------------------------|
-|
B|----------------------------------------------------------------|
-|
G|-777777777777777--333333333333333-----------------------------5-|
-|
D|-777777777777777--333333333333333--333333333333333--55555555--5-|
-|
A|-5555555555555550-1111111111111110-333333333333333--55555555--3-|
-| .. .. .. .. ..   .. .. .. .. ..
E|-----------------------------------1111111111111110-33333333----|
-|                                   .. .. .. .. ..   .. .. ..

Verse 2:
[ Tab from: http://www.guitartabs.cc/tabs/m/manyths/the_manyths_tab.html ]
e|----------------------------------------------------------------|
-|
B|----------------------------------------------------------------|
-|
G|-777777777777777--333333333333333-----------------------------5-|
-|
D|-777777777777777--333333333333333--333333333333333--55555555--5-|
-|
A|-5555555555555550-1111111111111110-333333333333333--55555555--3-|
-| .. .. .. .. ..   .. .. .. .. ..
E|-----------------------------------1111111111111110-33333333----|
-|                                   .. .. .. .. ..   .. .. ..
e|----------------------------------------------------------------|
-|
B|----------------------------------------------------------------|
-|
G|-777777777777777--333333333333333-----------------------------5-|
-|
D|-777777777777777--333333333333333--333333333333333--55555555--5-|
-|
A|-5555555555555550-1111111111111110-333333333333333--55555555--3-|
-| .. .. .. .. ..   .. .. .. .. ..
E|-----------------------------------1111111111111110-33333333----|
-|                                   .. .. .. .. ..   .. .. ..

Bridge 1:

e|---------------------------------------------------|
-|
B|---------------------------------------------------|
-|
G|-7---2-5-3-----------------------------------3---5-|
-|
D|-7---2-5-3-333333333333333--555555555555555--3---5-|
-|
A|-5---0-3-1-333333333333333--555555555555555--1---3-|
-|
E|-----------1111111111111110-3333333333333330-------|
-|           .. .. .. .. ..   .. .. .. .. ..

Bridge 2:

e|---------------------------------| \
-|
B|---------------------------------|  \
-|
G|-7--10-9-7-5-5-2-2-3-3-3-3-----5-|   \
-|		  THE MANYTH!
D|-7--10-9-7-5-5-2-2-3-3-3-3-5-5-5-|   /
-|
A|-5---8-7-5-3-3-0-0-1-1-3-3-5-5-3-|  /
-|
E|-----------------------1-1-3-3---| /
-|

Refrain 1:

e|------------------------------------------------------------------|
-|
B|------------------------------------------------------------------|
-|
G|----------55555555-7777777--5555555--3333333--------------------5-|
-|
D|-33333333-55555555-7777777--5555555--3333333--3333333--5555555--5-|
-|
A|-33333333-33333333-55555550-33333330-11111110-3333333--5555555--3-|
-|          .. .. .. .. .. .  .. .. .  .. .. .
E|-11111111-------------------------------------11111110-33333330---|
-| .. .. ..	 .. .. .  .. .. .


Refrain 2:

e|--------------------------------------------------------------------|
-|
B|--------------------------------------------------------------------|
-|
G|----------55555555-7777777--5555555--3333333--------------------3-5-|
-|
D|-33333333-55555555-7777777--5555555--3333333--3333333--5555555--3-5-|
-|
A|-33333333-33333333-55555550-33333330-11111110-3333333--5555555--1-3-|
-|          .. .. .. .. .. .  .. .. .  .. .. .
E|-11111111-------------------------------------11111110-33333330-----|
-| .. .. ..                                     .. .. .  .. .. .


- - - - - - - -
Intro         1x
Verse 1     1x
Bridge 1   1x
Bridge 2   1x
Refrain 1  1x
Refrain 2  1x
Verse 2     1x
Bridge 1   1x
Bridge 2   1x
Refrain 1  1x
Refrain 2  1x
Intro        3x    Solo
Bridge 1   1x
Bridge 2   1x
Refrain 1  1x
Refrain 2  0x  Only Drums
Refrain 1  1x
Refrain 2  1x
Intro         2x
- - - - - - - - - - -
Comments