Manwhich - Little Piranhas Chords & Tabs

 

Little Piranhas Chords & Tabs

Manwhich Chords & Tabs

Version: 1 Type: Tab 0 ratings
1 star 2 stars 3 stars 4 stars 5 stars
comments

Little Piranhas Tab

   
Great Song!! Real easy to learn!
Standard tuning (E A D G B E)

Here is the song it is only two chords
[ Tab from: http://www.guitartabs.cc/tabs/m/manwhich/little_piranhas_tab.html ]
Intro
 -3-3-3-x-x-x-3-3-3-3--x-x-------------------------------
 -2-2-2-x-x-x-2-2-2-2--x-x--3-3-3-x-x-x-3-x-x-3----------
 -0-0-0-x-x-x-0-0-0-0--x-x--2-2-2-x-x-x-2-x-x-2----------
 -0-0-0-x-x-x-0-0-0-0--x-x--0-0-0-x-x-x-0-x-x-0----------
 -3-3-3-x-x-x-3-3-3-3--x-x--3-3-3-x-x-x-3-x-x-3----------
 -3-3-3-x-x-x-3-3-3-3--x-x--3-3-3-x-x-x-3-x-x-3----------

Chorus
 -3-3-3--3-3-3-3--x--------------------------
 -2-2-2--2-2-2-2--x--3-3-3--3-x-x-3----------
 -0-0-0--0-0-0-0--x--2-2-2--2-x-x-2----------
 -0-0-0--0-0-0-0--x--0-0-0--0-x-x-0----------
 -3-3-3--3-3-3-3--x--3-3-3--3-x-x-3----------
 -3-3-3--3-3-3-3--x--3-3-3--3-x-x-3----------

Just listen to the song to get exact timing
I haven't figured the rest but I'm going to update it
Comments