Manu Chao - Bongo Bong Chords & Tabs

 

Bongo Bong Chords & Tabs

Manu Chao Chords & Tabs

Version: 1 Type: Bass Tab 0 ratings
1 star 2 stars 3 stars 4 stars 5 stars
comments

Bongo Bong Bass Tab

.------------.
| Manu Chao  |
| Bongo Bong |
'------------'

[dunno the album]

Simple to play but it's fun.


-> silberfinger@gmx.net <-

[ Tab from: http://www.guitartabs.cc/tabs/m/manu_chao/bongo_bong_btab.html ]
G|-----------------|-----------------|--
D|-----------------|-----------------|--
A|---------7-5-7---|---------7-5-7---|--
E|---5---5---------|---5---5---------|--


G|-----------------|-----------------|--
D|---------7-5-7---|-----------------|--
A|---5---5---------|---------5-3-5---|--
E|-----------------|---3---3---------|--



That's it...
Comments