Manson Marilyn - Tourniquet Chords & Tabs

 

Tourniquet Chords & Tabs

Manson Marilyn Chords & Tabs

Version: 2 Type: Tab 0 ratings
1 star 2 stars 3 stars 4 stars 5 stars
comments

Tourniquet Tab

song: tourniquet
band: marilyn manson
tabbed by: pogo_76	
email: pogo_76@yahoo.com


tunning: standard
intro:
|--------------------------------------|
|---------------------------------5b---|
|-----------------------{3}-------5b---|
|----7b(8)-(8)-(8)r7-5---3--5----------|
|--------------------------------------|
|--------------------------------------|


 verse 1: 
 With all notes do volume swells (hit note with volume turned off then slowly
 turn volume up).
|----------------------------------------------------|
|----------------------------------------------------|
|----------------------------------------------------|
|--5~--8~----5~--8~----5~--8~----5~--11~--10~--------|
|----------------------------------------------------|
|----------------------------------------------------|


chorus:
|---------------------------|
|---------------------------|
|--------5^--6/7--7^--------|
|----5~~-------------8^-----|
|---------------------------|
|---------------------------|
[ Tab from: http://www.guitartabs.cc/tabs/m/manson_marilyn/tourniquet_tab_ver_2.html ]
fill:
|---------------------------------|
|----20~--------------------------|
|-19-----15-14~--10-12~--7-12~----|
|---------------------------------|
|---------------------------------|
|---------------------------------|
verse2:
|--------------------------------------------------------------------|
|--------------------------------------------------------------------|
|--------------------------------------------------------------------|
|--5~--8~-----5~--8~-----5~--8~-----5~--11~--10~-----5~--11~--10~----|
|--------------------------------------------------------------------|
|--------------------------------------------------------------------|


bridge:                                              lower trem bar
|-----------------------------------------| play a    |---------|
|-----------------------------------------| few times |---0\----|
|----------------------------------8^-----| then this |---0\----|
|-----------------------------------------| to finish |---0\----|
|--5-5-5-5-5-3-5-5-------5-5-5-5-5---5-5--| the bridge|---0\----|
|--3-3-3-3-3-1-3-3-------3-3-3-3-3---3-3--|           |---------|
 pm. . . . .   . .       . . . . .   . .


keyboard bit/ bridge:
|----------------------------------------|
|----------------------------------------|
|----------------------------------------|
|----------------------------------------|
|----------------------------------------|
|-2-4-2~----2-4-2~----2-4-2~----2-4-2~---|



ending:
|-------------------------|
|-------------------------|
|-------------------------|
|-----7b(8)~~~~~~~~-------|
|-------------------------|
|-------------------------|


7b(8)    bend a full step
^        bend half a step
~        vibrato
/        slide up
pm....   palm muting
\        lower tremolo bar


any request's,death threat's corrections,mariige proposals
email me at   pogo_76@yahoo.com


pogo_76.........


Comments