Manson Marilyn - Tourniquet Chords & Tabs

 

Tourniquet Chords & Tabs

Manson Marilyn Chords & Tabs

Version: 1 Type: Tab 0 ratings
1 star 2 stars 3 stars 4 stars 5 stars
comments

Tourniquet Tab

Tourniquet
tabbed by darren bencosky

Hey every tab I see for this song is wrong so I tabbed this at 3 o' clock 
in the morning so if I screwed up oh well, but this is alot closer then what
I've seen so far...

Standard Tuning EADGBe
Intro
----------------------------------
----------------0-----------------
-2^h3p2p0-------6----------------- (4X)
-----------3--0-------------------
----------------------------------
----------------------------------
When you hit that first bend hold at it's
maximum pitch when you hit the hammer on
and when you pull off it should still be
a A note bended to the pitch of B...

Verse
Use Volume Swells...
-----------------------------------------------
-----------------------------------------------
----------------------------(7)---(9)----------
-(5)--(8)--(5)---(8)--(5)----------------------
-----------------------------------------------
-----------------------------------------------

Then for the part of "I wrapped our love"
Just repeat the intro 4X
[ Tab from: http://www.guitartabs.cc/tabs/m/manson_marilyn/tourniquet_tab.html ]
Chorus...
---------------------------------
-0---0--------------0---0--------
-6---9----12h14p13--6---9--------
-0---0--------------0---0--------
---------------------------------
---------------------------------

Chorus outro / solo
----------------------------------------
----------------------------------------
-2--------------------------------------
-0------0---5--4--2----------0----------
-2--4---5------------4--2-0--5----------
----------------------------------------
He sustains the notes and holds them
and sounds like he using a little fuzz
or some muffled distortion here to get
the notes to hum into each other...


Second VERse
------------------------------------------
------------------------------------------
-------------------------*8---------------
------------------------------------------
-5-5-5-5-5-3--5-5-5-5-5-------------------
-3-3-3-3-3-1--3-3-3-3-3-------------------
[p.m.------------------->
Hit the "*8" as a harmonic and it'll sound cool

Interlude before the last chorus is just...
--------------------------------
--------------------------------
--------------------------------
--------------------------------
--------------------------------
-2--4---2-----------------------

thank you and hopefully that will help
anyone who wants to play tourniquet...
One of the greatest songs ever written...
Comments