Manson Marilyn - The Reflecting God Chords & Tabs

 

The Reflecting God Chords & Tabs

Manson Marilyn Chords & Tabs

Version: 1 Type: Tab 2 ratings
1 star 2 stars 3 stars 4 stars 5 stars
comments

The Reflecting God Tab

Marilyn Manson "The Reflecting God" 
Album: Antichrist Superstar (1996)

Nobody wrote an accurate guitar tab for this classic song so I figured it was about time.
This is definitely one of Manson's best.

Drop those guitars down to D.

It starts with the bass intro.

Fill Riff 1
E|--------------|-------------|
B|--------------|-------------|
G|--------------|-------------|
D|--------------|----------6~-|  X 2
A|----8--7--5--7|--8--7--5----|
D|--------------|-------------|

"The nature of the leeches..."
E|--4-4-----4---|--4-4----4----4|
B|--------------|---------------|
G|------------------------------|
D|------------------------------|
A|------------------------------|
D|------------------------------|

"My world is unaffected..."
E|-------------------------------------------|
B|-------------------------------------------|
G|-------------------------------------------|
D|--2-2-2-2-repeat--5-5-5-5-3-3-3-3-2-2-2-2--|
A|--2-2-2-2---------5-5-5-5-3-3-3-3-2-2-2-2--|
D|--2-2-2-2---------5-5-5-5-3-3-3-3-2-2-2-2--|

"I went to god just to see..."
E|------------------------------|
B|------------------------------|
G|------------------------------|
D|--5-5--2-2--2-2-2-2-----------|
A|--3-3--0-0--2-2-2-2-----------|
D|------------2-2-2-2-----------|

CHORUS:
"Dies! Scar, can you feel my power..."
E|------------------------------|
B|------------------------------|
G|------------------------------|
D|--2-2---8--8-8-7-5------------|
A|--2-2---8--8-8-7-5------------|
D|--2-2---8--8-8-7-5------------|

Fill Riff 2
E|------------------------------|
B|------------------------------|
G|------------------------------|
D|------------------------------|  X 4
A|------------------------------|
D|--7-0-7-0-7-0-5-2-------------|

- Back to "my world is unaffected" riff

- Chorus
[ Tab from: http://www.guitartabs.cc/tabs/m/manson_marilyn/the_reflecting_god_tab.html ]
"No salvation, no forgiveness..."
E|------------------------------|
B|------------------------------|
G|------------------------------|
D|------------------------------|
A|--7--7--7--7--7-6-5-----------|
D|------------------------------|

"Forgiveness! Forgiveness!..."

E|--------12^--------12^--------|
B|------------------------------|
G|------------------------------|
D|--2--2-------2--2-------------|
A|--2--2-------2--2-------------|
D|--2--2-------2--2-------------|

"I went to god just to see..."  (Kill the distortion, go acoustic style for this bit)
Strumming
E|------------------------------|
B|------------------------------|
G|------------------------------|
D|--5-5--2-2--2-2-2-2-----------|
A|--3-3--0-0--2-2-2-2-----------|
D|------------2-2-2-2-----------|

- Chorus

Lyrics:
your world is an ashtray
we burn and coil like cigarettes
the more you cry your ashes turn to mud.
the nature of the leeches, 
the virgin's feeling cheated
you've only spent a second of your life.
my world is unaffected, there is an exit here
I say it is and then it's true.
there is a dream inside a dream,
I'm wide awake the more I sleep
you'll understand when I'm dead.
I went to god just to see, and I was looking at me.
saw heaven and hell were lies,
when I'm god everybody dies!

Chorus:
scar, can you feel my power?
shoot here and the world gets smaller
scar,scar,can you feel my power?
one shot and the world gets smaller

let's jump upon the sharp swords
and cut away our smiles.
without the threat of death
there's no reason to live at all.
my world is unaffected, there is an exit here
I say it is and then it's true,
there is a dream inside a dream,
I'm wide awake the more I sleep
you'll understand when I'm dead

each thing i show you is a piece of my death.
no salvation, no forgiveness
this is beyond your experience
forgiveness! forgiveness! forgiveness!...
Shoot! Shoot! Shoot motherfucker!


That's it.  Wicked song.  Katana601@hotmail.com if you have any questions.
Comments