Manson Marilyn - The Dope Show Chords & Tabs

 

The Dope Show Chords & Tabs

Manson Marilyn Chords & Tabs

Version: 1 Type: Tab 0 ratings
1 star 2 stars 3 stars 4 stars 5 stars
comments

The Dope Show Tab

Dope show
MARILYN MANSON
tabbed by Draven
Webmaster@vampire-theatre.com

INTRO
|-----------------------19~~~~---|
|--------------------------------|
|--------------------------------|
|----------0---------------------|
|----------0---------------------|REPEAT THIS ABOUT TWICE  LET IT RING THROUGHOUT AND USE HEAVEY DISTRORATION AND SIGNAL PROCESSING
|--------------12\10/12----------|

          H  BEND            ^BEND
|----------------------------|--------------------------------------|
|--------7^9----9------7^9---9------7B---7B----7B----7~~~7B---------|
|-------------------------------------------------------------------|tHIS INTRO OF THE SONG IS
|-------------------------------------------------------------------|MAINLY FEED BACK FROM THE GUITAR AND
|-------------------------------------------------------------------|THE NOTES BIENG HIT .ITS FAIRLY SIMPLE JUST BEND THE STRINGS AS YOU PLAY
|-------------------------------------------------------------------|INTO THE FEED BACK.


                                                fEED BACK MAINLY
|------------------------------------------------|
|------------------------------------------------|
|-7B---7B---9-----7\9B----------7\9B------9/8----|
|------------------------------------------------|
|------------------------------------------------|
|------------------------------------------------|


VERSE1 IS MAINLY BASS BUT THERE IS SOME CHANGES I WILL PUT THEM IN
THE THE THE DRUGS THEY SAY TO MAKE US FEEL SO HALLOW WE
|------------------------------------------------|
|------------------------------------------------|
|-------------9----------------------------------|
|------------------------------------------------|
|------------------------------------------------|
|------------------------------------------------|
LOVE IN VIEN NARICSSISTIC AND SO SHALLOW THE COPS AND QUEERS TO SWIM YOU HAVE TO SWALLOW HATE TODAY   NO
|---------------------------------------------------------------------------------------------------------|
|12-------------------------------------------10------------------------------------------------7---------|
|----------------------------------------------7------------------------------------------9---------------|
|---------------------------------------------------------------------------------------------------------|
|---------------------------------------------------------------------------------------------------------|
|---------------------------------------------------------------------------------------------------------|

LOVE FOR TOMORROW WERE ALL STARS NOW IN THE DOPE SHOW
|------------------------------------------------|
|------------------------------------------------|
|------------------------------------------------|
|------------------------------------------------|
|------------------------------------------------|
|------------------------------------------------|

WERE ALL STARS NOW IN THE DOPE SHOW
|------------------------------------------------|
|------------------------------------------------|
|------------------------------------------------|
|------------------------------------------------|
|------------------------------------------------|
|---------------------------------------------0--|
                                             P.M
[ Tab from: http://www.guitartabs.cc/tabs/m/manson_marilyn/the_dope_show_tab.html ]
PRE.CHORUS
THERES LOTS OF PRETTY  PRETTY ONES     THEY   WANNA GET YOU HIGH
BUT ALL THE PRETTY PRETTY ONES WELL LEAVE YOU LOW AND BLOW YOURE MIND.
|-----------------------------------------------------------------------------------------------|
|-----------------------------------------------------------------------------------------------|
|-9-999999-----12-12-12-12-12-12-12--7777777----------5555555-4---------------------------------|
|-9-999999-----12-12-12-12-12-12-12--7777777----------5555555-4---------------------------------|
|-7-777777-----10-10-10-10-10-10-10--5555555----------3333333-2---------------------------------|
|-----------------------------------------------------------------------------------------------|

CHORUS
WERE ALL STARS NOW   IN THE DOPE SHOW
|------------------12--14--------------14---12-----------|
|----12---10----------------10---12----------------------|
|-9-----------9------------------------------------------|
|--------------------------------------------------------|REPEAT TWO TIMES
|--------------------------------------------------------|
|--------------------------------------------------------|


THE LOVE YOU WHEN YOURE ONE THE COVERS
WHEN YOURE NOT THEY LOVE ANOTHER
THE LOVE YOU WHEN YOURE ON THE COVERS                WHEN YOURE NOT THEY LOVE    ANOTHER
|---------------------------------------------------|------------------------------------------|
|---------------------------------------------------|------------------------------------------|
|---------------------------------------------------|9-----------7-----------5------12---------|
|-2----2------0-2------2------2------0-2--------2---|9-----------7-----------5------12---------|
|---------------------------------------------------|7-----------5-----------3------10---------|
|----0------0------0--------0-----0--------3B-------|------------------------------------------|


VERSE 2 PLAY THE SAME NOTES AS VERSE ONE
|------------------------------------------------|
|------------------------------------------------|
|------------------------------------------------|
|------------------------------------------------|
|------------------------------------------------|
|------------------------------------------------|

PRE CHORUS
|-------------------------------------------------------------------------------------------------|
|-------------------------------------------------------------------------------------------------|
|-------------7--9-9------------7-9-9B7-------------7-9-9-7--------------7-9-9-7------------------|
|----7B--5-7---------0---7B--5------------7B7-5--X----------7B(7)-5---7---------------------------|
|-------------------------------------------------------------------------------------------------|
|-------------------------------------------------------------------------------------------------|
REPEAT THAT THREW THE CHORUS

WERE ALL STARS NOW  IN THE DOPE SHOW
REPEAT TWICE
|----------------------------------------------------------|
|----------------------------------------------------------|
|----------------------------------------------------------|
|----------------------------------------------------------|
|--------------------55--3-5-5-5-5-2-----------------------|
|-0---0-----0----3B----------------------------------------|
WELL FOLKS THATS THE SONG DOPE SHOW THERE WAS SOME LEAD AT THE END I DIDNT TAB CAUSE ITS JUST FEEDBACK MAINLY BUT IF YOU WANT IT EMAIL ME AT WEBMASTER@VAMPIRE-THEATRE.COM LATER

Comments