Manson Marilyn - Tainted Love Chords & Tabs

 

Tainted Love Chords & Tabs

Manson Marilyn Chords & Tabs

Version: 2 Type: Tab 2 ratings
1 star 2 stars 3 stars 4 stars 5 stars
comments

Tainted Love Tab

Title:Tainted Love
Artist:Marilyn Manson
tab by:Mark aka Tha Kid 

(use Distortion)

Intro:
e-----------------------------
a-----------------------------
d-----------------------------
g-----55----------------------
b-----55----------------------
E-----33----------------------
[ Tab from: http://www.guitartabs.cc/tabs/m/manson_marilyn/tainted_love_tab_ver_2.html ]
Chorus:
(i dont know how many times, listen to song for timing and stuff)
e-----------------------------
a------------8---7------------
d------------8---7------------
g----5---8---6---5------------
b----5---8--------------------
E----3---6--------------------

*jusy repeat the intro during the song

 and thats about it, this song is pretty easy to learn 
 and if any problems just email me at dj123kid@yahoo.com
Comments