Manson Marilyn - Sweet Dreams Chords & Tabs

 

Sweet Dreams Chords & Tabs

Manson Marilyn Chords & Tabs

Version: 3 Type: Tab 8 ratings
1 star 2 stars 3 stars 4 stars 5 stars
comments

Sweet Dreams Tab

Marilyn Manson
Sweet Dreams (as heard on Smells Like Children)
Tabbed by: aeroman10@yahoo.com


Rhy. Fig 1
E||-----------------------|----------------------|----------------------|
B||-----------------------|----------------------|----------------------|
G||*----------------------|----------------------|----------------------|
D||*------------5---------|--6---------5---------|----------------------|
A||---3----3---------3----|-------3---------3----|------------6\---8----|
E||-----------------------|----------------------|--4----4--------------|


                       8x  Rhy. Fig 2
-----------------------||----------------------|----------------------|
-----------------------||----------------------|----------------------|
----------------------*||--5----5----5---------|--5----5----5---------|
----------------------*||--6----6----6----6----|--6----6----6----6----|
------------5/---6-----||--6----6----6----6----|--6----6----6----6----|
--3----3---------------||--4----4----4----4----|--4----4----4----4----|



----------------------|----------------------|----------------------|
----------------------|-----------------4----|--4---------4---------|
--5----5----5---------|--5----4----4----5----|--5----5----5----5----|
--6----6----6----6----|--6----5----5----5----|--5----5----5----5----|
--6----6----6----6----|--6----5----5----3----|--3----3----3----3----|
--4----4----4----4----|--4----3----3---------|----------------------|



----------------------|----------------------|----------------------|
----------------------|----------------------|----------------------|
--5----5----5----5----|--5----5----5----5----|----------------------|
--5----5----5----5----|--6----6----6----6----|--6----6----6----5----|
--3----3----3----3----|--6----6----6----6----|--6----6----6----5----|
----------------------|--4----4----4----4----|--4----4----4----3----|



----------------------|----------------------|----------------------|
----------------------|----------------------|----------------------|
----------------------|----------------------|--4-------------------|
--6----6----6----6----|--6----6----6----6----|--5----5----5----5----|
--6----6----6----6----|--6----6----6----6----|--5----5----5----5----|
--4----4----4----4----|--4----4----4----4----|--3----3----3----3----|

[ Tab from: http://www.guitartabs.cc/tabs/m/manson_marilyn/sweet_dreams_tab_ver_3.html ]
 Rhy Fig. 3
|-----------------------|----------------------|----------------------|
|------------------3----|--3r------------------|--7----7r-------------|
|*--5----3----5---------|-------5----3----5----|------------5----3----|
|*----------------------|----------------------|----------------------|
|-----------------------|----------------------|----------------------|
|-----------------------|----------------------|----------------------|


                       2x Solo
-----------------------||--6----8----11----6----|--8----6~------------|
-------3----3r---------||-----------------------|------------7--------|
--5--------------5----*||-----------------------|---------------------|
----------------------*||-----------------------|---------------------|
-----------------------||-----------------------|---------------------|
-----------------------||-----------------------|---------------------|



----------------------|----------------------|----------------------|
----------------------|----------------------|----------------------|
--5----3----5---------|----------------------|----------------------|
-----------------3----|--3----5----3----5----|--3----5--------------|
----------------------|----------------------|------------3----5----|
----------------------|----------------------|----------------------|



-----------------------|----------------------|----------------------|
-----------------------|----------------------|----------------------|
-----------------------|------------3----3----|--5----6----5----5----|
--3--------3--3--3--3--|--5----6--------------|----------------------|
-----------------------|----------------------|----------------------|
-----------------------|----------------------|----------------------|



----------------------|-------6----8----6----|--11----13----14b---------||
--3----4----3----6----|--6b------------------|--------------------13~---||
----------------------|----------------------|--------------------------||
----------------------|----------------------|--------------------------||
----------------------|----------------------|--------------------------||
----------------------|----------------------|--------------------------||

There are also some Rhy. Fills in this song. The only one that you really
have to know is the one that goes:

E:----------------------------------------------------------------
B:----------------------------------------------------------------
G:---------5------------------------------------------------------
D:-6---5---5----------REPEAT WITH RHY. FIG 1----------------------
A:-6---5---3------------------------------------------------------
E:-4---3----------------------------------------------------------

Listen to the cd to see the exact number of times to play each figure and
the position of each in the song.
Comments