Manson Marilyn - Rock Is Dead Chords & Tabs

 

Rock Is Dead Chords & Tabs

Manson Marilyn Chords & Tabs

Version: 2 Type: Tab

Rock Is Dead Tab

Song: Rock Is Dead
Artist: Marilyn Manson
Tabbed: Andrew McNeil
E-Mail: draconis@satanic.co.uk

Tuning: Drop D

p= palm mute
/= slide up


Intro/Bridge
|--------------------------------|
|--------------------------------|
|--------------------------------|
|------4--------4--------4-------|
|-4--4---4-4--4---4-4--4---4-4--7|
|-4--4---4-4--4---4-4--4---4-4--7|
         p        p        p


Verse - Bass and Drums only


"Anything to belong"
|-------------|
|-------------|
|-------------|
|-------------|
|-7-/-10-/-12-|
|-7-/-10-/-12-|



Chorus
|--------------------|--------------------|
|--------------------|--------------------|
|--------------------|--------------------|
|-4--2-4-2--4--2-4-2-|-2--0-2-0--2--0-2-0-|
|-4--2-4-2--4--2-4-2-|-2--0-2-0--2--0-2-0-|
|-4--2-4-2--4--2-4-2-|-2--0-2-0--2--0-2-0-|
[ Tab from: http://www.guitartabs.cc/tabs/m/manson_marilyn/rock_is_dead_tab_ver_2.html ]
|--------------------|---------------------------|
|--------------------|---------------------------|
|--------------------|---------------------------|
|-3--2-3-2--3--2-3-2-|-4-4-4-4-4-4--7-7-7-7-7-7-7|
|-3--2-3-2--3--2-3-2-|-4-4-4-4-4-4--7-7-7-7-7-7-7|
|-3--2-3-2--3--2-3-2-|-4-4-4-4-4-4--7-7-7-7-7-7-7|


Extra
|---------------------------------|
|---------------------------------|
|---------------------------------|
|------4--------4--------4-------4|
|---------------------------------|
|---------------------------------|


Intro                   X4  
Verse                     
"Anything to belong"    X2
Chorus                  X1
Pause
Bridge                  X4
Verse
"Anything to belong"    X2
Chorus                  X1
Pause
Extra                   X2
Bridge                  X4
"Anything to belong"    X2
Chorus                  X2