Manson Marilyn - President Dead Chords & Tabs

 

President Dead Chords & Tabs

Manson Marilyn Chords & Tabs

Version: 2 Type: Tab 0 ratings
1 star 2 stars 3 stars 4 stars 5 stars
comments

President Dead Tab

Marilyn Manson-President dead 



Intro/bridge 
Repeat whole thing twice 
E----------------------------------0-0----------------------------------------0-0------ 
B----------------------------------0-0----------------------------------------0-0------ 
G-------------15--15--15--15---0-0-12--12-------------------------------0-0------ 
D----5--2-----x---x---x----x----0-0-x----x-----5--2---15--15--15--15-0-0------ 
A----5--2----13--13--13--13---0-0-10--10----5--2---x---x----x----x--0-0------ 
E----3--0------------------------------------------3--0---13--13--13--13----------- 

E-----------------------------------------0-0------------------------------------------- 
B-----------------------------------------0-0------------------------------------------- 
G-----------------------------------------0-0----12--12--7-7-7-7-7-7-7-7/9-9-9------- 
D---12--12---5--2---15--15--15--15-0-0----x---x----7-7-7-7-7-7-7-7/9-9-9-------------- 
A---x----x----5--2---x----x---x----x--0-0---10--10---5-5-5-5-5-5-5-5/7-7-7------ 
E---10--10---3--0---13--13--13--13-------------------------------------------------- 

Verse1(no guitar) 

Chorus repeat x2 
E--------------------------------------------------------------------------------------- 
B--------------------------------------------------------------------------------------- 
G--2--2--2--2--5--5--5--5-------------------------------------------------------------- 
D--2--2--2--2--5--5--5--5--5--5--5--5--4--4--3--3--------------------------------- 
A--0--0--0--0--3--3--3--3--5--5--5--5--4--4--3--3--------------------------------- 
E-----------------------------3--3--3--3--2--2--1--1--------------------------------- 

Bridge 
[ Tab from: http://www.guitartabs.cc/tabs/m/manson_marilyn/president_dead_tab_ver_2.html ]
Verse 2 
E----------x-x-x-x-x-x------------------x-x-x-x-x-x---------------x-x-x-x-x-x-------- 
B----------x-x-x-x-x-x------------------x-x-x-x-x-x---------------x-x-x-x-x-x---------- 
G----------x-x-x-x-x-x------------------x-x-x-x-x-x---------------x-x-x-x-x-x---------- 
D--5---2--x-x-x-x-x-x----2--5--5--2--x-x-x-x-x-x-2--5--5--2--x-x-x-x-x-x-2--5--- 
A--5---2--x-x-x-x-x-x----2--5--5--2--x-x-x-x-x-x-2--5--5--2--x-x-x-x-x-x-2--5--- 
E--3---0---x-x-x-x-x-x---0--3--3--0--x-x-x-x-x-x-0--3--3--0--x-x-x-x-x-x-0--3--- 

E--------------------------------------------------------------------------------------- 
B--------------------------------------------------------------------------------------- 
G--7-7-7-7-7-7-7-7/9-9-9--------------------------------------------------------------- 
D--7-7-7-7-7-7-7-7/9-9-9--------------------------------------------------------------- 
A--5-5-5-5-5-5-5-5/7-7-7--------------------------------------------------------------- 
E------------------------------------------------------------------------------------- 

Chorus 




Interlude 
E--------------------------------------------------------------------------------------- 
B--------------------------------------------------------------------------------------- 
G-------------------------------------------------------------------------------------- 
D-------------------------------------------------------------------------------------- 
A-------------------------------------------------------------------------------------- 
E---7--------\0---------/7-----7\3--0------------------------------------------------ 

Solo Repeat Twice 
E------------------------------------10-------------------------------------------------------
-------- 
B----------------------7--------------10----------------------------------------8-------------
---- 
G----------4-----------------4/----------7-----11-----------------9---------------------------
----- 
D--------------2/4-------------------------9------------------------------9-------------------
----- 
A---0--2-------------------------------------------9------------------------------------------
------- 
E------------------------------------------------------12--10---------------------------------
------- 

Into Chorus 


Comments