Manson Marilyn - Mobscene Chords & Tabs

 

Mobscene Chords & Tabs

Manson Marilyn Chords & Tabs

Version: 2 Type: Tab 0 ratings
1 star 2 stars 3 stars 4 stars 5 stars
comments

Mobscene Tab

song: Mobscene
by:Marilyn Manson
tabbed by neon41 :P if ur gonna use my tab plz put my name on it as
well otherwise i dont mind at all :P
D,G,C,F,A,D TUNING FOR 6 STRING (I WROTE THIS FOR MY RG)

intro

D--------------------------------------------------------------------
A--------------------------------------------------------------------
F--------------------------------------------------------------------
C--4-4--7-4-7-4--9--------4-4-7-4--2-4-2-----------------------------
G--4-4--7-4-7-4--9--------4-4-7-4--2-4-2-----------------------------
D--2-2--5-2-5-2--7--------2-2-5-2--0-2-0-----------------------------
A--------------------------------------------------------------------

the bit where manson goes pain pain.....
 
D--15-15-15-15--14---------------------------------------------------
A--------------------------------------------------------------------
F--------------------------------------------------------------------
C--------------------------------------------------------------------
G--------------------------------------------------------------------
D--------------------------------------------------------------------
A-------------------------------------------------------------------- x4
[ Tab from: http://www.guitartabs.cc/tabs/m/manson_marilyn/mobscene_tab_ver_2.html ]
D--------------------------------------------------------------------
A--------------------------------------------------------------------
F--------------------------------------------------------------------
C--4-4--7-4-7-4--9--------4-4-7-4--2-4-2-----------------------------
G--4-4--7-2-7-4--9--------4-4-7-4--2-4-2-----------------------------
D--2-2--5-2-5-2--7--------2-2-5-2--0-2-0-----------------------------
A-------------------------------------------------------------------- x4  
                       
chorus

D--------------------------------------------------------------------
A--------------------------------------------------------------------
F--------------------------------------------------------------------
C---9-9-9-9-9-9-9-9-----12-12-12-12-12-12-12-12----------------------
G---9-9-9-9-9-9-9-9-----12-12-12-12-12-12-12-12----------------------
D---7-7-7-7-7-7-7-7-----10-10-10-10-10-10-10-10---------------------- x4

D-4TH-TIME-----------------------------------------------------------
A--------------------------------------------------------------------
F--------------------------------------------------------------------
C--------------------------------------------------------------------
G---10-10-10-10-10-10-10-10------------------------------------------
D---8--8--8--8--8--8--8--8-------------------------------------------
A--------------------------------------------------------------------

versus

D--------------------------------------------------------------------
A--------------------------------------------------------------------
F--------------------------------------------------------------------
C--2-4-2-------------------------------------------------------------
G--2-4-2-------------------------------------------------------------
D--0-2-0-------------------------------------------------------------
A-------------------------------------------------------------------- x4			
Comments