Manson Marilyn - Minute Of Decay Chords & Tabs

 

Minute Of Decay Chords & Tabs

Manson Marilyn Chords & Tabs

Version: 2 Type: Tab 0 ratings
1 star 2 stars 3 stars 4 stars 5 stars
comments

Minute Of Decay Tab

This is a cool song. I think it’s one of the best off  the Antichrist 
Superstar album.It’s real easy as well.

The bass guitar plays the main riff, but it sounds just as good on a
six string electric. Just don’t have the treble too high!

e |--------------------------------------------
B |--------------------------------------------
G |--------------------------------------------
D |--------------------------------------------
A |-0--0--0--3--3--3--2--3--2------------------
E |---------------------------1--1--1--3—------

The bit over the top in the intro is just an A barre chord! Just turn
the distortion up and play the top or bottom 3 strings in accordance
to the rhythm. Listen to it and you’ll get the idea. Small pushes
and pulls on a tremolo arm work as well.
[ Tab from: http://www.guitartabs.cc/tabs/m/manson_marilyn/minute_of_decay_tab_ver_2.html ]
e |----5-------------
B |----5-------------
G |----6-------------
D |----7-------------
A |----7-------------
E |----5-------------

A little guitar bit comes over the top halfway through the verse. 
I don’t think it’s right but it’s pretty close

e |----------------------
B |---8----5-----7------
G |----------------------
D |----------------------
A |----------------------
E |----------------------

The bit after Manson sings ‘I’m on my way down…….’ is 

e |------------------------
B |------------------------
G |------------------------
D |-5-5-5-5-5-5-7----------               X 3
A |-5-5-5-5-5-5-7----------
E |-3-3-3-3-3-3-5----------

e |------------------------
B |------------------------
G |------------------------
D |-5-5-5-5-5-5-3----------               X 1
A |-5-5-5-5-5-5-3----------
E |-3-3-3-3-3-3-1----------

I can’t work out the middle bit. Any suggestions, comments or
questions e-mail me at cheesywotsitnipplecrackers@hotmail.com. Enjoy… 
Comments