Manson Marilyn - Lunchbox Chords & Tabs

 

Lunchbox Chords & Tabs

Manson Marilyn Chords & Tabs

Version: 1 Type: Tab 1 rating
1 star 2 stars 3 stars 4 stars 5 stars
comments

Lunchbox Tab

Song: Lunchbox
Artist: Marilyn Manson
Album: Portrait Of An American Family
Track: 3
Track Length: 4 Minutes 32 Seconds
Tabbed By: El_Bevros@yahoo.com
Tuning: Standard

/ - Slide Up
\ - Slide Down
X - Scratch
: - Let Ring
~ - Vibrato
PM - Palm Mute
h - Hammer On
p - Pull Off
^ - Bend Up
^( ) - Bend Up Then Back Down To Original Note
  

Intro, (0:01-0:26)
e]-------------------------------------------
B]-------------------------------------------
G]--------------7/9-9---------------10^-10---
D]--X-X-X-X-X-X-7/9-9-X-X-X-5-X-X-X--9^- 9---
A]--X-X-X-X-X-X-5/7-7-X-X-X-5-X-X-X----------
E]--X-X-X-X-X-X-------X-X-X-3-X-X-X----------

e]------------------------------  Play the intro. four
B]------------------------------  times, but only play
G]--7/9-9---------------14^(14)-  the 6 scratches at 
D]--7/9-9-X-X-X-5-X-X-X-13^(13)-  the start the first
A]--5/7-7-X-X-X-5-X-X-X---------  time.
E]--------X-X-X-3-X-X-X---------


Pre-Verse, (0:26-0:37)
BRING IT DOWN..............................ON WE PLOW
e]---------------------------------------------------
B]---------------------------------------------------
G]------7------7------7---------------12h14p12-------
D]--2:--7-5-2--7-5-2--7-5-2--12-14-12----------12h14-
A]--2:--5-5-2--5-5-2--5-5-2--------------------------
E]--0:----3-0----3-0----3-0--------------------------


Verse, (0:39-1:02)
e]--------
B]--------
G]--7-----  Play 8X, but on 8th time 
D]--7-5-2-  let the last chord ring 
A]--5-5-2-
E]----3-0-


Chorus, (1:03-1:25) The number of times you play each
                    chord is not exact but you can figure
                    it out.
Iwanna grow up, wanna be................................
e]------------------------------------------------------
B]------------------------------------------------------
G]--99999999-1212121212121212-77777777------------------ 
D]--99999999-1212121212121212-77777777------------------
A]--77777777-1010101010101010-55555555-2222222222222222-
E]-------------------------------------0000000000000000-
                                       |______PM_______|

e]--------------------------------------------------------
B]--------------------------------------------------------
G]--99999999-1212121212121212-1414141414141414------------
D]--99999999-1212121212121212-1414141414141414------------
A]--77777777-1010101010101010-1212121212121212-2222222222-
E]---------------------------------------------0000000000-
                                              |____PM____|

[ Tab from: http://www.guitartabs.cc/tabs/m/manson_marilyn/lunchbox_tab.html ]
Main Riff, (1:25-1:37)
e]-------------------------------------------------------
B]-------------------------------------------------------
G]-7/9-9-X-X-X-12-X-X-X-10^-10-7/9-9-X-X-X-12-X-X-X-14^-- X2
D]-7/9-9-X-X-X-12-X-X-X--9^--9-7/9-9-X-X-X-12-X-X-X-13^--
A]-5/7-7-X-X-X-10-X-X-X--------5/7-7-X-X-X-10-X-X-X------
E]-------------------------------------------------------


Pre-Chorus, (1:37-2:13)
Next Mother Fucker.............
e]-----------------------------
B]-----------------------------    On final time
G]----------------------7------    add vibrato to
D]--2:-----X-X-X--X-X-X-7-5-2--    last note.
A]--2:-----X-X-X--X-X-X-5-5-2--
E]--0:-----X-X-X--X-X-X---3-0--
          |_____PLay 12X_____|


Chorus, (2:14-2:36)
Just Play This The Same Way As Before.


Little Solo, (2:37-2:45)
e]---------------------------------------
B]---------------------------------------
G]---------------------------------------
D]-----------------------------------2:--
A]------7-7-5-5----------7-7-5-5-----2:--
E]--0-0---------7-7--0-0---------3-3-0:--
   |____Play 3X____|


Keyboard Part Arranged For Guitar, (2:53-3:03)
e]--------------------------------------------
B]--------------------------------------------
G]--------------------------------------------
D]--12--------12--------12--------12----------
A]-----10-7:-----10-7:-----10-7:-----10-7:----
E]--------------------------------------------


Main Solo, (3:04-3:14)
e]----------------------------------------------------------
B]----------------15-------------------------------------15-
G]-------------12----14^(14)-12-14-12-14-12-14-12-14^(14)---
D]-12-12-12-14----------------------------------------------
A]----------------------------------------------------------
E]----------------------------------------------------------

e]----------------------------------------------------------
B]---------15---------15------------------------------------
G]-14^(14)----14^(14)----14^(14)-12-14-12-------------12-14-
D]----------------------------------------14-12-14-12-------
A]----------------------------------------------------------
E]----------------------------------------------------------

e]---------------------
B]---------------------
G]-12-14-14^-14-12-----
D]-----------------14--
A]---------------------
E]---------------------
                   

NOTE:- None Of Marilyn Manson's Guitarist's Ever Play The 
Solo The Same Way  So Just Mess Around With It Until You 
Get Something You Like. The Solo Above Is How I like To 
Play It.


Chorus, (3:17-4:02)
Just Play This The Same Way As Before, But 2X instead Of 1


Outro. (4:07-4:20)
e]------------------------------------
B]------------------------------------
G]-7-------7-------7-------7----------
D]-7-5-2~--7-5-2~--7-5-2~--7-5-2~~~~--
A]-5-5-2~--5-5-2~--5-5-2~--5-5-2~~~~--
E]---3-0~----3-0~----3-0~----3-0~~~~--

You could also play the Little Solo (2:37) as the outro
which is what John 5 ends with on the Last Tour... CD.

If you have any questions about this song or any requests 
for songs you would like me to tab please feel free to e-mail
me at the above address. Bye, Bye for now.
Comments