Manson Marilyn - Long Hard Road Out Of Hell Chords & Tabs

 

Long Hard Road Out Of Hell Chords & Tabs

Manson Marilyn Chords & Tabs

Version: 1 Type: Chords 0 ratings
1 star 2 stars 3 stars 4 stars 5 stars
comments

Long Hard Road Out Of Hell Chords

   
#----------------------------------PLEASE NOTE--------------------------------#
#This file is the author's own work and represents their interpretation of the#
#song. You may only use this file for private study, scholarship, or research.#
#-----------------------------------------------------------------------------#
Date: Thu, 16 Apr 98 12:12:45 -0500
From: Henry Nicholson 
Subject: m/manson_marilyn/long_hard_road_out_of_hell.crd
             Here is every piece of guitar and bass from 
                      Long Hard Road Out of Hell
                                 by
                           Marilyn Manson

Intro/Main Bassline
--------------------------------|--------------------------------||
--------------------------------|--------------------------------||
--------------------------------|--------------------------------||
-0-0-0-0-0-0-0-0-3-3-3-3-3-3-3-3|1-1-1-1-1-1-1-1-0-0-0-0-0-0-0-0-||
[ Tab from: http://www.guitartabs.cc/tabs/m/manson_marilyn/long_hard_road_out_of_hell_crd.html ]
Intro guitar
--------------------------------|---------------------------------|
--------------------------------|---------------------------------|
-0------------------------------|--------------------------0------|
-------8------------------------|------8--\--3--------------------|
-7------------------------------|7--------------------------------|
--------------------------------|---------------------------------|
--------------------------------|---------------------------------||
--------------------------------|---------------------------------||
--------------------------------|--------------------------0------||
-------8------------------------|------8--\--3--------------------||
-7------------------------------|7--------------------------------||
--------------------------------|---------------------------------||

      Chorus Guitar-
--------------------------------|--------------------------------||
--------------------------------|--------------------------------||
--------------------------------|--------------------------------||
-2-2-2-2-2-2-2-2-5-5-5-5-5-5-5-5|3-3-3-3-3-3-3-3-2-2-2-2-2-2-2-2-||
-2-2-2-2-2-2-2-2-5-5-5-5-5-5-5-5|3-3-3-3-3-3-3-3-2-2-2-2-2-2-2-2-||
-0-0-0-0-0-0-0-0-3-3-3-3-3-3-3-3|1-1-1-1-1-1-1-1-0-0-0-0-0-0-0-0-||
 e               G               F               e
Chorus Bassline-
--------------------------------|---------------------------------------||
--------------------------------|---------------------------------------||
--------------------------------|---------------------------------------||
-0-0-0-0-0-0-0-0-3-3-3-3-3-3-3-3|1-1-1-1-1-1-1-1-12-12-12-12-12-12-12-12||


I wanna sell my soul for anything, anything but you...
Sell my soul for anything, anything but you.
Outro guitar-
---------------------------------------------------------------||
---------------------------------------------------------------||
---------------------------------------------------------------||
-2---5---2---9-------8---8-8-8-8-2---5---2---9-------2---5---2-||
-2---5---2---9-------8---8-8-8-8-2---5---2---9-------2---5---2-||
-0---3---0---7-------6---6-6-6-6-0---3---0---7-------0---3---0-||
                         PM_____|
And that's it!!!
                                        -POODGIE
Comments