Manson Marilyn - Last Day On Earth Acoustic Chords & Tabs

 

Last Day On Earth Acoustic Chords & Tabs

Manson Marilyn Chords & Tabs

Version: 1 Type: Tab 0 ratings
1 star 2 stars 3 stars 4 stars 5 stars
comments

Last Day On Earth Acoustic Tab

#----------------------------------PLEASE NOTE--------------------------------#
#This file is the author's own work and represents their interpretation of the#
#song. You may only use this file for private study, scholarship, or research.#
#-----------------------------------------------------------------------------#
#-- File created with Instab - http://www.pconline.com/~smcarey/instab.html --#
#-----------------------------------------------------------------------------#

Author/Artist: Marilyn Manson
Title: Last Day On Earth (Acoustic)
Transcribed by: }{XxDisTuRbeDxX}{
Email: Everlong360@hotmail.com

This is from a live acoustic performance.  This is the first song I learned from ear,
so it might me terribly wrong.  Please feel free to email me with comments or 
corrections
[ Tab from: http://www.guitartabs.cc/tabs/m/manson_marilyn/last_day_on_earth_acoustic_tab.html ]
------------------------------------------------------------------------------
------------------------------------------------------------------------------
--------------------------7-77--555--4----------------------------------------
-9-99--555--2-------------7-77--555--4----------------------------------------
-9-99--555--2-------------5-55--333--2----------------------------------------
-7-77--333--0-----------------------------------------------------------------
 play 3 times then...this                                                     

-5-55--3333--3333-----5-55--3333--5555-55-------------------------------------
-5-55--3333--3333-----5-55--3333--5555-55-------------------------------------
-5-55--3333--5553-----5-55--3333--7777-77-------------------------------------
-7-77--5555--5555-----7-77--5555--7777-77-------------------------------------
-7-77--5555--3335-----7-77--5555--5555-55-------------------------------------
-5-55--3333-----3-----5-55--3333----------------------------------------------
 I think these are the right chords, but I could be wrong                     

------------------------------------------------------------------------------
------------------------------------------------------------------------------
------------------------------------------------------------------------------
------------------------------------------------------------------------------
------------------------------------------------------------------------------
------------------------------------------------------------------------------
                                                                              

Comments