Manson Marilyn - Irresponsible Hate Anthem Complete Chords & Tabs

 

Irresponsible Hate Anthem Complete Chords & Tabs

Manson Marilyn Chords & Tabs

Version: 1 Type: Tab 0 ratings
1 star 2 stars 3 stars 4 stars 5 stars
comments

Irresponsible Hate Anthem Complete Tab

Artist: Marilyn Manson 
Song: Irresponsible Hate Anthem 
Album: Antichrist Superstar (1996)



This is a good song and I think it deserves a good tab; most of the ones around are good but miss vital notes here and there. So here's my attempt! 


Intro:
E|-----------------------------------------------------                      
B|----------------------------------------------------- 
G|-----------------------------------------------------                      
D|-4-7-9-10-9-7-4-7-9-2-2-2-3------------------- Play this two Times ( tremolo pick
A|-4-7-9-10-9-7-4-7-9-2-2-2-3-------------------     each note)                 
E |-2-5-7-8--7-5-2-5-7-0-0-0-1-------------------   


Chorus1:
E|----------------------------                      
B|--------------------------- 
G|---------------------------                      
D|-4------------------------   
A|-4------------------------     Play this 16   times very quietly and very distorted              
E |-2------------------------            

[ Tab from: http://www.guitartabs.cc/tabs/m/manson_marilyn/irresponsible_hate_anthem_complete_tab.html ]
Chorus2:
E|---------------------------------------                      
B|--------------------------------------- 
G|---------------------------------------                      
D|-4-10-9-7-9-7-----------------------   
A|-4-10-9-7-9-7-----------------------     Play this three times                  
E |-2--8-7-5-7-5-----------------------            Then on third time do below

Continued chorus2: 
E|---------------------------------------                      
B|--------------------------------------- 
G|---------------------------------------                     
D|-2------------2--3------------------- 
A|-2-(let ring)-2--3-------------------                     
E |-0------------0--1-------------------  

High Bit:
E|-------------------------------------------------                      
B|--7-8-7-8-7-8-7-8-7-8-11-8---------------- 
G|-------------------------------------------------                     
D|------------------------------------------------  
A|------------------------------------------------                      
E |------------------------------------------------   

Ending: 
E|--------------------------------                      
B|-------------------------------
G|-------------------------------                     
D|--4-4-4-4-4------------------ 
A|--4-4-4-4-4------------------                     
E |--2-2-2-2-2------------------  

These parts are not in order

For any bitching or corrections etc. email me at burning_effigy666@hotmail.com 
Comments