Manson Marilyn - I Dont Like The Drugs Chords & Tabs

 

I Dont Like The Drugs Chords & Tabs

Manson Marilyn Chords & Tabs

Version: 1 Type: Tab 1 rating
1 star 2 stars 3 stars 4 stars 5 stars
comments

I Dont Like The Drugs Tab

                                                                                                               song: i don't like the drugs(but the drugs like me)
band: marilyn manson
tabbed by: pogo_76	
email: pogo_76@yahoo.com
tunning: standard

intro:
|----------------------------------|
|----------------------------------|
|----------------------------------|
|---4-4-------4-4-------7-7---/----|
|---4-4-------4-4-------7-7---/----|
|---2-2-------2-2-------5-5---/----|
[ Tab from: http://www.guitartabs.cc/tabs/m/manson_marilyn/i_dont_like_the_drugs_tab.html ]
verse:                                                        fill
-------------------------------------------------------|--------------| |------------------------------------------------------|--------------| |------------------------------------------------------|--------------| |------------------------------------------------------|---7~----9~---| 
|---9--7-9~-xx----9--7-9~-xx----9--7-9~-xx----9--7-9~--|--------------|
|------------------------------------------------------|--------------|
bridge before chorus:
|-------------------------------------------------------------------------------------|
|-------------------------------------------------------------------------------------|
|-------------------------------------------------------------------------------------|
|6-6-6-6\-8-8-8-8-/6-6-6-6\-8-8-8-8-/9-9-9-9---6-6-6-6\-8-8-8-8-/-6-6-6-6\-8-8-8-8-/--|
|4-4-4-4\-6-6-6-6-/4-4-4-4\-6-6-6-6-/7-7-7-7---4-4-4-4\-6-6-6-6-/-4-4-4-4\-6-6-6-6-/--|
|-------------------------------------------------------------------------------------| 

-----------------------------------|
-----------------------------------|
-----------------------------------|
-9-9-9-9-/10-10-10-10/11~~\--------| 
-7-7-7-7-/8--8--8--8-/9-~~\--------| 
-----------------------------------|
chorus:                                                              fill
|--------------------------------------------------------------| |-------------|
|--------------------------------------------------------------| |-------------| |--------------------------------------------------------------| |-------------|
|--4---4---4---------7--9-------------4-x-4-x-4---------9--7---| |--4-4----7-7-|
|--4-x-4-x-4---------7--9-------------4-x-4-x-4---------9--7---| |--4-4----7-7-|
|--2-x-2-x-2p0h2p0---5--7-------------2-x-2-x-2p0h2p0---7--5---| |--2-2----5-5-|

breakdown (bass)
|----------------------------------|
|----------------------------------|
|----------------------------------|
|----------------------------------|
|----------------------------------|
|---8/6--6/-6/-6/---6/5--5/-5/-5/--|                                                                                                               
Comments