Manson Marilyn - God Eat God Chords & Tabs

 

God Eat God Chords & Tabs

Manson Marilyn Chords & Tabs

Version: 1 Type: Tab 0 ratings
1 star 2 stars 3 stars 4 stars 5 stars
comments

God Eat God Tab

God eat God
By Marilyn Manson
From Holywood 
Tabbed by Gordon Windham

I came across a different posting and it sounded too low so I fixed it
this sounds much better

Standard tuning
[ Tab from: http://www.guitartabs.cc/tabs/m/manson_marilyn/god_eat_god_tab.html ]
Main Riff
Clean tone
e|-1------1-------0-------0------------------------------------ |
B|----3-------3-------3-------3---0---2---3---2-------2---3---2-|
G|------------------------------------------------3-------------|
D|--------------------------------------------------------------|
A|--------------------------------------------------------------|
E|--------------------------------------------------------------|

Heavy Distortion
  -----------------------P. M.------------------
|------------------------------------------------|
|------------------------------------------------|
|------------------------------------------------|
|------------------------------------------------|
|-2--2--2--2--4--4--4--4--5--5--5--5--5--5--5--5-|
|-0--0--0--0--2--2--2--2--3--3--3--3--3--3--3--3-|
 "Before the bullets..."

 P.M.= Palm Muting

 Any Questions, Comments, Criticism
   
 E-mail me at Azwar0@Hotmail.com
                                

                               -GRDN   
Comments